Oops, an error
Loading. Please wait.

Vampires Curse tab

version 1
version 1

Whole song

2,400 views 6 this week
4 commentsread comments
1 2 3 4 5
x 5
add to favorites
×
Save as Personal and add changes to this tab that will be seen only by you. Learn more ›
×
You can save this tab as Personal to edit and correct it or add notes. All changes will be seen only by you. Learn more »
launch autoscroll
font size
0
reset
how to read this tab
guitar tuner
edit
Autoscroll
slow
fast
+/-
esc
set tempo
stop
Author
-----------------------------------------------------------------------------
                      Vampires Curse- Koffin Kats
-----------------------------------------------------------------------------


                     *this tab is being updated*


Intro:
e--------------------------------------------------------------|
b--------------------------------------------------------------|
g-----7-----------------------------7------7--7-7--7-----------|
d---9---10-9-----------7----------9---10-9-----------10-9------|
a-7----------10--10-10---10-9---7-------------------------10---|
e--------------------------------------------------------------|

Verse:
e-----------------------------|
b-----------------------------|
g-9-----9-9-5-----5-5-7-------|
d-9-----9-9-5-----5-5-7-------| x2
a-7-----7-7-3-----3-3-5-------|
e-----------------------------|

e----------------------------------------|
b----------------------------------------|
g-9-9-9-9-9-9-9-9--5-5-5-5--7-7-7-7------|
d-9-9-9-9-9-9-9-9--5-5-5-5--7-7-7-7------|
a-7-7-7-7-7-7-7-7--3-3-3-3--5-5-5-5------|
e----------------------------------------|

Chorus:
e--------------------------------------------|
b--------------------------------------------|
g-9-9-9-9--5-5-5-5--9-9-9-9--9-7-5-4---------|
d-9-9-9-9--5-5-5-5--9-9-9-9--9-7-5-4---------|x3
a-7-7-7-7--3-3-3-3--7-7-7-7--7-5-3-2---------|
e--------------------------------------------|

e----------------------------------|
b----------------------------------|
g-9--5---9-9-9-9-9-9-9-9-----------|
d-9--5---9-9-9-9-9-9-9-9-----------|
a-7--3---7-7-7-7-7-7-7-7-----------|
e----------------------------------|

then repeat intro, verse ,and chorus

solo:
e-----------------------------------------------------------------------|
b-----------------------------------------------------------------------|
g---7-13^-12-11-----------9------------7-13^-12-11-13^--13^-13^--13^-12-|
d-9-------------12--12-12---12-11^---9----------------------------------|
a-----------------------------------------------------------------------|
e-----------------------------------------------------------------------|

e------------------------------------------------------------------------|
b------------------------------------------------------------------------|
g-11----11-12-13^-12--11-12-13^-12--11-12-13^-12-13^-12-11--11-12-13^-12-|
d----12------------------------------------------------------------------|
a------------------------------------------------------------------------|
e------------------------------------------------------------------------|

e----------------------------|
b-----11^--------------------|
g-13^-----13^----------------|   not done
d----------------------------|
a----------------------------|
e----------------------------|

repeat verse and chorus

outro:

e---------------------------------------|
b---------------------------------------|
g-5-5-5-5--4-4-4-4-9-9-9-9-9-9-9-9------|
d-5-5-5-5--4-4-4-4-9-9-9-9-9-9-9-9------|
a-3-3-3-3--2-2-2-2-7-7-7-7-7-7-7-7------|
e---------------------------------------|

            
            
Suggest correction
Creating personal tab
Creating personal tab
You can edit any tab online and save it as your Personal.

You can edit, replace or remove any tab part or add personal notes – all changes will be seen only by you.

Personal tabs can be accessed anytime from any device, even offline.
Learn more »
comments
print report bad tab
4 comments total. Showing first comments.
0 reply
StratusX 82 Jan 05, 2010 10:57 PM

This is very confusing. Was it really too much to tab this properly, with all the strings in the reverse (right) order?

0 reply
StratusX 82 Jan 06, 2010 12:15 AM

I switched it over to the standard tab format and after playing along with the song it's very accurate. Good job on that. I submitted the correct version, giving credit to you for tabbing it.

0 reply
Psycho-for-hire 10 May 28, 2011 12:31 PM

Sweet man you gotta finish the solo itd be great if u did but other then that good ****n tab

guest
You may want to rate the tab now too:
select rating
Wanna post a correction for this tab? Suggest correction