Oops, an error
Loading. Please wait.

Great Fairy Fountain Tab

version 1
version 1

Whole song

Interactive

17,029 views 69 this week
no commentswrite comment
1 2 3 4 5
x 3
add to favorites
launch autoscroll
font size
0
reset
how to read this tab
guitar tuner
Autoscroll
slow
fast
+/-
esc
set tempo
stop
Help us to improve Ultimate-Guitar.com Take our survey!
×
Author
Difficulty
advanced
Zelda Great Fairy Fountain

     E  E  E  E  H         
e|--5--------------------|
B|--------------8--------|
G|-----------------------|
D|-----------7-----------|
A|--------5--------------|
E|-----6-----------------|


    E  E  E  E  E  E  E  E   
e|--------------------------|
B|--7-----------8-----------|
G|--------------5-----------|
D|--------7--5-----7--5-----|
A|-----5-----------------5--|
E|--------------------------|


    E  E  E  E  H         
e|--3--------------------|
B|--------------6--------|
G|-----------------------|
D|-----------5-----------|
A|--------3--------------|
E|-----5-----------------|


    E  E  E  E  E  E  E  E   
e|--------------------------|
B|--5-----------6-----------|
G|--------------5-----------|
D|--------5--3-----5--3-----|
A|-----------------------3--|
E|-----5--------------------|


    E  E  E  E  H         
e|--1--------------------|
B|--------------5--------|
G|-----------------------|
D|-----------3-----------|
A|--------1--------------|
E|-----3-----------------|


    E  E  E  E  E  E  E  E   
e|--------------0-----------|
B|--4-----------------------|
G|--------------0-----------|
D|--------3--2-----2--------|
A|--------------------3--1--|
E|-----3--------------------|


    E  E  E  E  H         
e|--0--------------------|
B|--------------3--------|
G|-----------------------|
D|-----------2-----------|
A|--------0--------------|
E|-----1-----------------|


    E  E  E  E  E  E  E  E   
e|--------------------------|
B|--2-----------3-----1-----|
G|--------------0--------3--|
D|--------2--0-----3--------|
A|-----0--------------------|
E|--------------------------|


    E  E  E  E  H         
e|--5--------------------|
B|--------------8--------|
G|-----------------------|
D|-----------7-----------|
A|--------5--------------|
E|-----6-----------------|


    E  E  E  E  E  E  E  E   
e|--------------------------|
B|--7-----------8-----------|
G|--------------7-----------|
D|--------7--5-----8--5-----|
A|-----5-----------------5--|
E|--------------------------|


    E  E  E  E  H         
e|--6-----------5--------|
B|-----------------------|
G|-----------5-----------|
D|-----------------------|
A|--------3--------------|
E|-----5-----------------|


    E  E  E  E  E  E  E  E   
e|--------------5-----------|
B|--9-----------------------|
G|--------5-----8--7--5-----|
D|-----------7-----------7--|
A|-----5--------------------|
E|--------------------------|


    E  E  E  E  H         
e|--8-----------6--------|
B|-----------------------|
G|-----------------------|
D|-----------8-----------|
A|--------5--------------|
E|-----6-----------------|


    E  E  E  E  E  E  E  E   
e|--5-----------6-----------|
B|--------------------------|
G|--------------5-----------|
D|--------8--7-----8--5-----|
A|-----------------------5--|
E|-----6--------------------|


    E  E  E  E  H         
e|--5-----------3--------|
B|-----------------------|
G|-----------3-----------|
D|--------5--------------|
A|-----3-----------------|
E|-----------------------|


    E  E  E  E  E  E  E  E    
e|--1-----------0-----3--0--||
B|--------------------------||
G|--------3--0-----3--------||
D|--------------------------||
A|-----3--------------------||
E|--------------------------||
Suggest correction
Give kudos to tab author, rate the tab!
1 2 3 4 5
comments
print report bad tab
guest
You may want to rate the tab now too:
select rating
Wanna post a correction for this tab? Suggest correction