Oops, an error
Loading. Please wait.

Kakariko Village Tab

version 1
version 1

Whole song

61,209 views 141 this week
8 commentsread comments
1 2 3 4 5
x 10
add to favorites
launch autoscroll
font size
0
reset
how to read this tab
guitar tuner
×
Best way to learn
"Kakariko Village"
Autoscroll
slow
fast
+/-
esc
set tempo
stop
Author
Tuning
D G C F A D
Artist: Legend Of Zelda: Ocarina Of Time
Title:  Kakariko Village

Tuning: Whole-Step Down
Okay, i was kinda sick of the crappy tabs for this song, so i made my own. It's 150% correct, 
and pretty easy to play.

-Gavin Hunter

Riff 1:
D|-------0-----|-------------|-------3-----|-------1-----|
A|-----1---1---|-------1-----|-----1---1---|-----3---3---|
F|---0-------0-|-----2---2---|---2-------2-|---0-------4-|
C|-------------|---2-------2-|-0-----------|-------------|
G|-3-----------|-0-----------|-------------|-------------|
D|-------------|-------------|-------------|-3-----------|

Riff 2:
D|-------------|-------------|-------------|-------------|
A|-----1---1---|-----0---0---|-----1---1---|-----2---2---|
F|-------2---2-|-------0---0-|---0---0---0-|---2---2---2-|
C|-------------|---0---------|-------------|-------------|
G|---3---------|-------------|-3-----------|-0-----------|
D|-1-----------|-3-----------|-------------|-------------|

Riff 3:
D|-------------|-------------|-------------|-------------|
A|-----1---1---|-----0---0---|-----1---1---|-----1---1---|
F|---2---2---2-|-------0---0-|---0---0---0-|---0---0---0-|
C|-0-----------|---0---------|-------------|-------------|
G|-------------|-------------|-3-----------|-3-----------|
D|-------------|-3-----------|-------------|-------------|

Melody 1:
*Start at bar 4 riff 1
D|-------------|-------------|-------------|/15----------|
A|-------------|-13----------|/17------13--|-------------|
F|---------12--|---------12--|-------------|-------------|
C|-------------|-------------|-------------|-------------|
G|-------------|-------------|-------------|-------------|
D|-------------|-------------|-------------|-------------|

Melody 2:
D|---------15--|-17----------|--------/17--|-15----------|
A|-------------|-------------|-12----------|-------------|
F|-------------|-------------|-------------|-------------|
C|-------------|-------------|-------------|-------------|
G|-------------|-------------|-------------|-------------|
D|-------------|-------------|-------------|-------------|

Melody 3:
D|-------------|-------------|-------------|-------------|
A|-17----------|-17----------|-17------15--|-13----------|
F|-------------|-------------|-------------|-------------|
C|-------------|-------------|-------------|-------------|
G|-------------|-------------|-------------|-------------|
D|-------------|-------------|-------------|-------------|

Ok, this is the order to play it:
Intro:
Riff 1 *
Main part: 
Riff 1
Riff 1
Riff 2
Riff 3 *
Repeat Main part

* Melody starts / restarts on bar 4 of this riff

Melody order:
Melody 1
Melody 1
Melody 2
Melody 3
Suggest correction
comments
print report bad tab
8 comments total. Showing first comments.
+1 reply
SOMETHINGSOAD 70 Dec 01, 2006 06:22 PM

its a good tab but make the tuning DGCFAD and it will sound right

-1 reply
Ptownshend 10 Jun 28, 2008 05:56 PM

I'm sorry but your tab is incorrect. The one under this is better

-2 reply
mJohnsson 82 Jan 06, 2010 12:46 PM

Who in the right mind (who isn't recording or doing a concert) would prefer tuning down a guitar just to make it sound exactly like the original?

guest
You may want to rate the tab now too:
select rating
Wanna post a correction for this tab? Suggest correction