Oops, an error
Loading. Please wait.

Kakariko Village Tab

version 3
version 3

Whole song

13,234 views 39 this week
1 commentread comment
1 2 3 4 5
x 10
add to favorites
launch autoscroll
font size
0
reset
how to read this tab
guitar tuner
×
Best way to learn
"Kakariko Village"
Autoscroll
slow
fast
+/-
esc
set tempo
stop
Kakariko Village - A link to the past - Koji Kondo
Tabbed by: Original Tab by Gavin Hunter. Modified by Carsten Helverschou 
Email: carstenhelverschou@hotmail.com

[Riff 1]
e|-------0-----|-------------|-------3-----|-------1-----|
B|-----1---1---|-------1-----|-----1---1---|-----3---3---|
G|---0-------0-|-----2---2---|---2-------2-|---0-------0-|
D|-------------|---2-------2-|-0-----------|-------------|
A|-3-----------|-0-----------|-------------|-------------|
E|-------------|-------------|-------------|-3-----------|

[Riff 2]
e|-------------|-------------|-------------|-------------|
B|-----1---1---|-----0---0---|------1---1--|-----2---2---|
G|---0---0---0-|---0---0---0-|---0---0---0-|---2---2---2-|
D|-------------|-------------|-------------|-------------|
A|-------------|-------------|-3-----------|-0-----------|
E|-1-----------|-3-----------|-------------|-------------|

[Riff 3]
e|-------------|-------------|-------------|-------------|
B|-----1---1---|-----0---0---|-----1---1---|-------------|
G|---2---2---2-|-------------|---0---0---0-|-------------|
D|-0-----------|---0---0---0-|-------------|-------------|
A|-------------|-------------|-3-----------|-3-----------|
E|-------------|-3-----------|-------------|-------------|

[Riff 4]
e|-----1---1---|-----1---1---|-----0---0---|-----0---0---|
B|-----1---1---|-----1---1---|-----1---1---|-----1---1---|
G|---2---2---2-|---2---2---2-|---0---0---0-|---0---0---0-|
D|-3-----------|-3-----------|-2-----------|-2-----------|
A|-------------|-------------|-------------|-------------|
E|-------------|-------------|-------------|-------------|

[Riff 5]
e|-----1---1---|-----1---1---|-----0---0---|-----0---0---|
B|-----1---1---|-----1---1---|-----1---1---|-----1---1---|
G|---2---2---2-|---2---2---2-|---0---0---0-|---0---0---0-|
D|-0-----------|-0-----------|-------------|-------------|
A|-------------|-------------|-3-----------|-1-----------|
E|-------------|-------------|-------------|-------------|

[Riff 6]
e|-----1---1---|-----1---1---|-----0---0---|-----3---3---|
B|-----1---1---|-----1---1---|-----1---1---|-----2---2---|
G|---2---2---2-|---2---2---2-|---0---0---0-|---2---2---2-|
D|-3-----------|-3-----------|-2-----------|-------------|
A|-------------|-------------|-------------|-0-----------|
E|-------------|-------------|-------------|-------------|

[Riff 7]
e|-----1---1---|-----0---0---|-------0-----|-------------|
B|-----1---1---|-----0---0---|-----1---1---|-------------|
G|---2---2---2-|---0---0---0-|---0-------0-|-------------|
D|-0-----------|-------------|-------------|-------------|
A|-------------|-------------|-3-----------|-3-----------|
E|-------------|-3-----------|-------------|-------------|

[Melody 1]
[*Start at bar 4 riff 1]
e|-------------|-------------|-0-----------|-3-----------|
B|-------------|-1-----------|-----------1-|-------------|
G|-----------0-|-----------0-|-------------|-------------|
D|-------------|-------------|-------------|-------------|
A|-------------|-------------|-------------|-------------|
E|-------------|-------------|-------------|-------------|

[Melody 2]
e|-----------3-|-5-----------|-----------5-|-3-----------|
B|-------------|-------------|-5-----------|-------------|
G|-------------|-------------|-------------|-------------|
D|-------------|-------------|-------------|-------------|
A|-------------|-------------|-------------|-------------|
E|-------------|-------------|-------------|-------------|

[Melody 3]
e|-0-----------|-0-----------|-0-----------|-------------|
B|-------------|-------------|-----------3-|-1-----------|
G|-------------|-------------|-------------|-------------|
D|-------------|-------------|-------------|-------------|
A|-------------|-------------|-------------|-------------|
E|-------------|-------------|-------------|-------------|
[Ok, this is the order to play it]

[Intro]
(Riff 1)
(Riff 1)

[Main part] 
(Riff 1)
(Riff 1)
(Riff 2)
(Riff 3)

[Repeat Main part]

[Trio/Bridge]
Riff 4
Riff 5
Riff 6
Riff 7

(Repeat Main part)

(Melody restarts on BAR 4 of this riff)

[Melody order]
(Melody 1)
(Melody 1)
(Melody 2)
(Melody 3)
(Melody 4)(I havent written this since I just whistle or sing along) 
Suggest correction
comments
print report bad tab
1 comment total.
0 reply
Claine-senpai 113 Nov 04, 2015 10:09 PM, edited on November 5 2015, 07:43 am

I'm playing it like this: (cause i dont like these high sounds :D)
Melody 1:
e|-------------|-------------|-------------|-------------|
B|-------------|-------------|-------------|-------------|
G|-------------|-------------|----------3--|-/10---------|
D|---------3---|--/8-----3---|--/12--------|-------------|
A|-------------|-------------|-------------|-------------|
E|-------------|-------------|-------------|-------------|
Melody 2:
e|-------------|-------------|-------------|-------------|
B|-------------|-------------|-------------|-------------|
G|---------10--|/12------3---|--12---\10---|-7-----------|
D|-------------|-------------|-------------|-------------|
A|-------------|-------------|-------------|-------------|
E|-------------|-------------|-------------|-------------|
Melody 3:
e|-------------|-------------|-------------|-------------|
B|-------------|-------------|-------------|-------------|
G|----------7--|----------7--|----------5--|----------3--|
D|-------------|-------------|-------------|-------------|
A|-------------|-------------|-------------|-------------|
E|-------------|-------------|-------------|-------------|

(Melody 4+5:)
e|-------------|-------------|-------------|-------------|-------------|
B|-------------|-------------|-------------|-------------|-------------|
G|---------3---|-3--------2--|-5---3-------|-------------|-------------|
D|-------------|-------------|----------3--|--1--0--1--3-|0------------|
A|-------------|-------------|-------------|-------------|-------------|
E|-------------|-------------|-------------|-------------|-------------|

e|-------------|-------------|-------------|-------------|
B|-------------|-------------|-------------|-------------|
G|---------3---|-3--------2--|-5---/10-----|-8---7--5--3-|
D|-------------|-------------|-------------|-------------|
A|-------------|-------------|-------------|-------------|
E|-------------|-------------|-------------|-------------|

guest
You may want to rate the tab now too:
select rating
Wanna post a correction for this tab? Suggest correction