Oops, an error
Loading. Please wait.

Kokiri Forest Tab

version 1
version 1

Whole song

Interactive

11,503 views 18 this week
1 commentread comment
1 2 3 4 5
not so good
x 6
add to favorites
launch autoscroll
font size
0
reset
how to read this tab
guitar tuner
Tab Pro tools
  • play this tab
  • loop segment
  • change instrument
  • show fretboard
  • metronome
Autoscroll
slow
fast
+/-
esc
set tempo
stop
Contributor
E-------------------------------------------------------------|
A-------------------------------------------------------------|
D-------------------------------------------------------------|
G-------------------------------------------------------------|
B-------------------------------------------------------------|
E-0--4--6-0--4--6--0--4--6--12-10--7--8--7 --3--0--0--3--5--0-|

Yea i got bored one day and decided to learn this song.

you can really play it on any string you want, so have fun
comments
print report bad tab
1 comment total.
0 reply
Skruzz wrote on January 26 2010, 01:25 am

First of all, this is the Lost Woods theme you're doing.

You are close, however, if you're going to start where you did, it should read:

e|------------------------------------------|
B|------------------------------------------|
D|------------------------------------------|
G|------------------------------------------|
A|-0-4-6-0-4-6-0-4-6-11-9-6-7-6-2-------2---|
E|--------------------------------4-2-4---4-|

And then there is the matter of a second part, which goes something like:

e|-------------------------------|
B|-------------------------------|
G|-------------------------------|
D|-------------------------------|
A|-0-4-6-0-4-6-0-4-6-11-9-6-7-11-|
E|-------------------------------|

I don't recall how the rest of it goes, work on it from there.

Finally, there is more to the song than just this. Go listen to it again.

I want to post or [tab]
guest
You may want to rate the tab now too:
select rating
Please do not post tabs as comments. Select "correction" instead!