Oops, an error
Loading. Please wait.

Luigis Manson Theme Tab

836 views 6 this week
1 commentread comment
1 2 3 4 5
accurate
x 4
add to favorites
launch autoscroll
font size
0
reset
how to read this tab
guitar tuner
Autoscroll
slow
fast
+/-
esc
set tempo
stop
Help us to improve Ultimate-Guitar.com Take our survey!
×
Author
Difficulty
intermediate
Main Riff 1

Bass Lead
G|-9-9-9-9----9-8----7-7-7-7---7-------------9-9-9-9----9-8---|
D|---------10-----9----------9---10--8-9-------------10-----9-|
A|---------------------------------------7--------------------|
E|------------------------------------------------------------|
A|------------------------------------------------------------|

G|-7-7-7-7----7-9-7-------------------7-9-14-14-17-16-|
D|---------10-------10-9-7---6-7-9-10-----------------|
A|----------------------------------------------------|
E|----------------------------------------------------|
A|----------------------------------------------------|

G|-8-9-8-7--6-7-6-5------------8-9-------------|
D|-------------------9-10-9-8------9-8-9-------|
A|---------------------------------------7---7-|
E|---------------------------------------------|
A|---------------------------------------------|

Bass
G|-----------------------------------------------------------------------|
D|-----------------------------------------------------------------------|
A|-------7-6-7-------7-6-7---------------------------------7-5-----------|
E|-5---5-------5---5---------5---5---5---6-7-0-5---5---5-------8-7-5---5-|
A|-----------------------------------------------------------------------|

G|------------------------------------------------------|
D|-------------7-7-10-9---------------------------------|
A|---------5-7------------------------------------------|
E|-4-5-7-8--------------0-0-0-0-0-0-0-0------------0--0-|
A|---------------------------------------6-7-2-1-2------|

Rhythm Guitar
E|---------------------|
B|---------------------|
G|---------------------|
D|-----------2--2------|
A|-6-7-2-1-2-2--2--///-|
E|-6-7-2-1-2-0--0--///-|
A|-6-7-2-1-2-------///-|

Main Riff 2

Lead Guitar
E|------------------------------------------------------------|
B|------------------------------------------------------------|
G|-9-9-9-9----9-8----7-7-7-7---7-------------9-9-9-9----9-8---|
D|---------10-----9----------9---10--8-9-------------10-----9-|
A|---------------------------------------7--------------------|
E|------------------------------------------------------------|

E|--------------------------------------------------8-7-|
B|--------------------------------------------10-10-----|
G|-7-7-7-7----7-9-7-----------------------7-9-----------|
D|---------10-------10-9-7---7---6-7-9-10---------------|
A|------------------------------------------------------|
E|------------------------------------------------------|

E|---------------------------------------------|
B|---------------------------------------------|
G|-8-9-8-7--6-7-6-5------------8-9-------------|
D|-------------------9-10-9-8------9-8-9-------|
A|---------------------------------------7---7-|
E|---------------------------------------------|
Rhythm Guitar
E|--------------------------------------------------------------|
B|--------------------------------------------------------------|
G|--------------------------------------------------------------|
D|--------------2-----------------------------------------------|
A|-0--0--0--1-2-2--0--0--0--7-5-3-2-0--0-----------5-7-0--0-3-2-|
E|-0--0--0--1-2-0--0--0--0--7-5-3-2-0--0--4-5-7-8------0--0-3-2-|
A|-0--0--0--1-2----0--0--0--7-5-3-2-0--0---------------0--0-3-2-|

E|--------------------------------|
B|--------------------------------|
G|--------------------------------|
D|-2-2-2-2-2-2-2------------2--2--|
A|-2-2-2-2-2-2-2--6-7-2-1-2-2--2--|
E|-0-0-0-0-0-0-0--6-7-2-1-2-0--0--|
A|----------------6-7-2-1-2-------|

Bass
G|--------------------------------------------------------------|
D|--------------------------------------------------------------|
A|-------------------------------------------------5-7----------|
E|--------------0-------------------------4-5-7-8---------------|
A|-0--0--0--1-2----0--0--0--7-5-3-2-0--0---------------0--0-3-2-|

G|--------------------------------|
D|--------------------------------|
A|--------------------------------|
E|-0-0-0-0-0-0-0------------0--0--|
A|----------------6-7-2-1-2-------|

Outside Theme

Acoustic Guitar
E|------------------------------------------------------|
B|---1----1----1----1-----0----0----0----0--------------|
G|----------------------------------------------2----1--|
D|--2-2--2-2--2-2--2-2---1-1--1-1--0-0--0-0---------0-1-|
A|-0----0----0----0-----0----0----0----0-----0-3-3-2----|
E|------------------------------------------------------|

E|-----------------------------------------------------------|
B|---1----1----0----0----0----0--5-3-1-----1----1----1-----1-|
G|-------------------------------4-2-1-4------------------2--|
D|--2-2--2-2--1-1--1-1--0-0--0-0-------2--2-2--2-2--2-2--2---|
A|-0----0----0----0----0----0------------0----0----0----0----|
E|-----------------------------------------------------------|

E|-----------------------11-12-11-10--9-10-9-8--7-8-7-6-----------0-0-0-|
B|------------------------------------------------------4-5-------------|
G|-----------------5---4------------------------------------4-3-4-1-1-1-|
D|-------------7--7---6-------------------------------------------2-2-2-|
A|---------5-7---7---7--------------------------------------------------|
E|-4-5-7-8--------------------------------------------------------------|

Harmony
E|-------------5-8-7----------------------------------------------|
B|-----------5--------9-10-9-8--8-9-8-7--6-7-6-5------------------|
G|-----4-5-7------------------------------------------------------|
D|-6-7--------------------------------------------1-2-------------|
A|----------------------------------------------------2-1-2-------|
E|----------------------------------------------------------0-0-0-|
Suggest correction
comments
print report bad tab
1 comment total.
0 reply
TOMMYGULLY2012 966 wrote on May 18 2013, 02:44 pm

this is perfect BUT you copied it from CSGuitar89 so you don't deserve the 5 stars. sorry mate :(

guest
You may want to rate the tab now too:
select rating
Please do not post tabs as comments. Select "correction" instead!