Oops, an error
Loading. Please wait.

Mario Bros Undeworld bass

1,883 views 3 this week
1 commentread comment
1 2 3 4 5
x 3
add to favorites
×
Save as Personal and add changes to this tab that will be seen only by you. Learn more ›
×
You can save this tab as Personal to edit and correct it or add notes. All changes will be seen only by you. Learn more »
launch autoscroll
font size
0
reset
guitar tuner
edit
Autoscroll
slow
fast
+/-
esc
set tempo
stop
Author
Difficulty
Sup,this is my first Tab,  it's really easy, And Fun
Try to Slap the Bass, or if you have a synth Pedal try it.



G---------------------------------------------------|
D-------9----------6---------7------------     x  3-|
A---------------------------------------------------|
E---7----------4----------5-------------------------|



----------9---------6--------7-------------------------|
----------------------------------------           x 3-|
----7---------4----------5-----------------------------|
-------------------------------------------------------|



----------------------------------------------|
----------------------------------------------|
---6--5--4--3--2--1--6--5---------------------|
--------------------------4-3-2-1-------------|

and repeat it
Until the Time ends, you die, or pass the level xD !

Have Fun.

            
            
Suggest correction
Creating personal tab
Creating personal tab
You can edit any tab online and save it as your Personal.

You can edit, replace or remove any tab part or add personal notes – all changes will be seen only by you.

Personal tabs can be accessed anytime from any device, even offline.
Learn more »
Give kudos to tab author, rate the tab!
1 2 3 4 5
comments
print report bad tab
1 comment total.
0 reply
XxThreeCheersxX 13,198 Jul 30, 2012 11:56 AM

It's alright, but there are better tabs; it's missing a few notes towards the end, and second repeating part should be lower than the first part, not higher.

guest
You may want to rate the tab now too:
select rating
Wanna post a correction for this tab? Suggest correction