Oops, an error
Loading. Please wait.

Midnas Lament tab

version 2
version 2

Whole song

  • This arrangement is for two instruments as opposed... Show more

Interactive

7 views 3 this week
no commentswrite comment
1 2 3 4 5
3 more votes to show rating
add to favorites
×
Save as Personal and add changes to this tab that will be seen only by you. Learn more ›
×
You can save this tab as Personal to edit and correct it or add notes. All changes will be seen only by you. Learn more »
launch autoscroll
font size
0
reset
how to read this tab
guitar tuner
edit
Autoscroll
slow
fast
+/-
esc
set tempo
stop
About this tab version
This arrangement is for two instruments as opposed to the original, which is for one piano. The Rhythm part of this arrangement requires no capo. I have turned most of the arpeggios into more guitar style chord shapes with a some hammer-ons to get every note. Was this info helpful? Yes No
Midna's Lament
Nintendo
The Legend of Zelda: Twilight Princess
Koji Kondo

Time Signature: 6/8

[Intro]

-Rhythm-
    D7sus2
    |           |           |           |           
    1 2 3 4 5 6 1 2 3 4 5 6 1 2 3 4 5 6 1 2 3 4 5 6 
e|------------0-----------0-----------0-3p0---------|
B|----------1-----------1-----------1-------1-------|
G|--------2-----------2-----------2-----------2-----|
D|--0-2-3-------0-2-3-------0-2-3---------------3-2-|
A|--------------------------------------------------|
E|--------------------------------------------------|

[Part I]

-Rhythm-
   D7sus2
   |           |           |           |           
   1 2 3 4 5 6 1 2 3 4 5 6 1 2 3 4 5 6 1 2 3 4 5 6
e|-----------0-----------0-----------0-----------0-|
B|---------1-----------1-----------1-----------1---|
G|-------2-----------2-----------2-----------2-----|
D|-0-2-3-------0-2-3-------0-2-3-------0-2-3-------|
A|-------------------------------------------------|
E|-------------------------------------------------|

-Lead-
   |           |           |           |           
   1 2 3 4 5 6 1 2 3 4 5 6 1 2 3 4 5 6 1 2 3 4 5 6
e|---------13--12~---------------------------------|
B|-10~-----------------13--12~-----10--12~~--------|
G|-----------------------------------12------------|
D|-------------------------------------------------|
A|-------------------------------------------------|
E|-------------------------------------------------|

[Part II]

-Rhythm-
  Dsus2
   |           |           |           |           
   1 2 3 4 5 6 1 2 3 4 5 6 1 2 3 4 5 6 1 2 3 4 5 6
e|-----------0-----------0-----------0-----------0-|
B|---------3-----------3-----------3-----------3---|
G|-------2-----------2-----------2-----------2-----|
D|-0-2-3-------0-2-3-------0-2-3-------0-2-3-------|
A|-------------------------------------------------|
E|-------------------------------------------------|

-Lead-
   |           |           |           |           
   1 2 3 4 5 6 1 2 3 4 5 6 1 2 3 4 5 6 1 2 3 4 5 6
e|---------------17-----17-------------------------|
B|-------------15--17-15--17~~---------------------|
G|-------------------------------------------------|
D|-------------------------------------------------|
A|-------------------------------------------------|
E|-------------------------------------------------|

[Part III]

-Rhythm-
   D7sus2
   |           |           |           |           
   1 2 3 4 5 6 1 2 3 4 5 6 1 2 3 4 5 6 1 2 3 4 5 6
e|-----------0-----------0-----------0-----------0-|
B|---------1-----------1-----------1-----------1---|
G|-------2-----------2-----------2-----------2-----|
D|-0-2-3-------0-2-3-------0-2-3-------0-2-3-------|
A|-------------------------------------------------|
E|-------------------------------------------------|

-Lead-
   |           |           |           |           
   1 2 3 4 5 6 1 2 3 4 5 6 1 2 3 4 5 6 1 2 3 4 5 6
e|---------13--12----------10------121315~~--------|
B|-10------------------13--------------------------|
G|-------------------------------------------------|
D|-------------------------------------------------|
A|-------------------------------------------------|
E|-------------------------------------------------|

[Part IV]

-Rhythm-
   Dsus2
   |           |           |           |              
   1 2 3 4 5 6 1 2 3 4 5 6 1 2 3 4 5 6 1 2 3 4 5 6 
e|-----------0-----------0-----------0-----------0-|
B|---------3-----------3-----------3-----------3---|
G|-------2-----------2-----------2-----------2-----|
D|-0-2-3-------0-2-3-------0-2-3-------0-2-3-------|
A|-------------------------------------------------|
E|-------------------------------------------------|

-Lead-
   |           |           |           |                  
   1 2 3 4 5 6 1 2 3 4 5 6 1 2 3 4 5 6 1 2 3 4 5 6 
e|-------------------20----------------------------|
B|-----------------18--201817~~--------------------|
G|-------------------------------------------------|
D|-------------------------------------------------|
A|-------------------------------------------------|
E|-------------------------------------------------|

[Part IV.5]

-Rhythm-
   Dsus2
   |           |                
   1 2 3 4 5 6 1 2 3 4 5 6 
e|-----------0-----------0-|
B|---------3-----------3---|
G|-------2-----------2-----|
D|-0-2-3-------0-2-3-------|
A|-------------------------|
E|-------------------------|

-Lead-
   |           |                  
   1 2 3 4 5 6 1 2 3 4 5 6 
e|-17~~--------------------|
B|-------------------------|
G|-------------------------|
D|-------------------------|
A|-------------------------|
E|-------------------------|

[Part V] 

-Rhythm-
(This rhythm arpeggio is pretty difficult to play without a capo on the 3rd fret.
 To get all of the notes to ring together, I have included a couple different versions)

[Version I]
(This version forces the fretting hand to release some of the ringing notes)

   D#sus2
   |           |                   
   1 2 3 4 5 6 1 2 3 4 5 6 
e|-------------------------|
B|-------3h4h6-------3h4h6-|
G|-----3-----------3-------|
D|---5-----------5---------|
A|-6-----------6-----------|
E|-------------------------|

[Version II]
(If you can mash this shape up in one hand and tap the last night with the other)

   |           |                      
   1 2 3 4 5 6 1 2 3 4 5 6 
e|-------------------------|
B|-------3h4t6-------3h4t6-|
G|-----3-----------3-------|
D|---5-----------5---------|
A|-6-----------6-----------|
E|-------------------------|

[Version III]
(Similar to the last, except the tap doesn't cramp the fretting hand as much)

   |           |           
   1 2 3 4 5 6 1 2 3 4 5 6 
e|-------------------------|
B|-------3h4---------3h4---|
G|-----3----t10----3----t10|
D|---5-----------5---------|
A|-6-----------6-----------|
E|-------------------------|

[Version IV]

   |           |                    
   1 2 3 4 5 6 1 2 3 4 5 6 
e|-----------1-----------1-|
B|-------3/4---------3/4---|
G|---0h3---------0h3-------|
D|-1-----------1-----------|
A|-------------------------|
E|-------------------------|

-Lead-
   |           |                    
   1 2 3 4 5 6 1 2 3 4 5 6 
e|------18-----17----------|
B|-16----------------18----|
G|-------------------------|
D|-------------------------|
A|-------------------------|
E|-------------------------|

[Part VI]

-Rhythm-
   G#                      A
   |           |           |           |           
   1 2 3 4 5 6 1 2 3 4 5 6 1 2 3 4 5 6 1 2 3 4 5 6
e|-------------------------------------------------|
B|-----------1-----------1-----------2-----------2-|
G|-------0h1---------0h1---------0h2---------0h2---|
D|-----1-----------1-----------2-----------2-------|
A|---3-----------3-----------4-----------4---------|
E|-4-----------4-----------5-----------5-----------|

-Lead-
   |           |           |           |           
   1 2 3 4 5 6 1 2 3 4 5 6 1 2 3 4 5 6 1 2 3 4 5 6
e|-15~~------------------15------------------------|
B|---------------------18--17~~--------------------|
G|-------------------------------------------------|
D|-------------------------------------------------|
A|-------------------------------------------------|
E|-------------------------------------------------|

[Part I]

-Rhythm-
   D7sus2
   |           |           |           |           
   1 2 3 4 5 6 1 2 3 4 5 6 1 2 3 4 5 6 1 2 3 4 5 6
e|-----------0-----------0-----------0-----------0-|
B|---------1-----------1-----------1-----------1---|
G|-------2-----------2-----------2-----------2-----|
D|-0-2-3-------0-2-3-------0-2-3-------0-2-3-------|
A|-------------------------------------------------|
E|-------------------------------------------------|

-Lead-
   |           |           |           |           
   1 2 3 4 5 6 1 2 3 4 5 6 1 2 3 4 5 6 1 2 3 4 5 6
e|---------13--12~---------------------------------|
B|-10~-----------------13--12~-----10--12~~--------|
G|-----------------------------------12------------|
D|-------------------------------------------------|
A|-------------------------------------------------|
E|-------------------------------------------------|

[Part II]

-Rhythm-
  Dsus2
   |           |           |           |           
   1 2 3 4 5 6 1 2 3 4 5 6 1 2 3 4 5 6 1 2 3 4 5 6
e|-----------0-----------0-----------0-----------0-|
B|---------3-----------3-----------3-----------3---|
G|-------2-----------2-----------2-----------2-----|
D|-0-2-3-------0-2-3-------0-2-3-------0-2-3-------|
A|-------------------------------------------------|
E|-------------------------------------------------|

-Lead-
   |           |           |           |           
   1 2 3 4 5 6 1 2 3 4 5 6 1 2 3 4 5 6 1 2 3 4 5 6
e|---------------17-----17-------------------------|
B|-------------15--17-15--17~~---------------------|
G|-------------------------------------------------|
D|-------------------------------------------------|
A|-------------------------------------------------|
E|-------------------------------------------------|

[Part III]

-Rhythm-
   D7sus2
   |           |           |           |           
   1 2 3 4 5 6 1 2 3 4 5 6 1 2 3 4 5 6 1 2 3 4 5 6
e|-----------0-----------0-----------0-----------0-|
B|---------1-----------1-----------1-----------1---|
G|-------2-----------2-----------2-----------2-----|
D|-0-2-3-------0-2-3-------0-2-3-------0-2-3-------|
A|-------------------------------------------------|
E|-------------------------------------------------|

-Lead-
   |           |           |           |           
   1 2 3 4 5 6 1 2 3 4 5 6 1 2 3 4 5 6 1 2 3 4 5 6
e|---------13--12----------10------121315~~--------|
B|-10------------------13--------------------------|
G|-------------------------------------------------|
D|-------------------------------------------------|
A|-------------------------------------------------|
E|-------------------------------------------------|

[Part VII]

-Rhythm-
   Dsus2
   |           |           |           |              
   1 2 3 4 5 6 1 2 3 4 5 6 1 2 3 4 5 6 1 2 3 4 5 6 
e|-----------0-----------0-----------0-----------0-|
B|---------3-----------3-----------3-----------3---|
G|-------2-----------2-----------2-----------2-----|
D|-0-2-3-------0-2-3-------0-2-3-------0-2-3-------|
A|-------------------------------------------------|
E|-------------------------------------------------|

-Lead-
   |           |           |           |                  
   1 2 3 4 5 6 1 2 3 4 5 6 1 2 3 4 5 6 1 2 3 4 5 6 
e|-------------------20----------------------------|
B|-----------------18--201817~~----------------1012|
G|-------------------------------------------------|
D|-------------------------------------------------|
A|-------------------------------------------------|
E|-------------------------------------------------|

[Part VIII]

-Rhythm-
   FM7/A                   G6
   |           |           |           |           
   1 2 3 4 5 6 1 2 3 4 5 6 1 2 3 4 5 6 1 2 3 4 5 6
e|-----------0-----------0-------------------------|
B|-------0h1---------0h1-----------0h3---------0h3-|
G|-------------------------------0-----------0-----|
D|---2/3---------2/3---------0h2---------0h2-------|
A|-0-----------0-----------------------------------|
E|-------------------------3-----------3-----------|

-Lead-
   |           |           |           |           
   1 2 3 4 5 6 1 2 3 4 5 6 1 2 3 4 5 6 1 2 3 4 5 6
e|---------------------12--10----------------------|
B|-13~~--------------------------------------------|
G|-------------------------------12~~--------------|
D|-------------------------------------------------|
A|-------------------------------------------------|
E|-------------------------------------------------|

[Part IX]

-Rhythm-
   F                       E5
   |           |           |           |           
   1 2 3 4 5 6 1 2 3 4 5 6 1 2 3 4 5 6 1 2 3 4 5 6
e|-------------------------------------------------|
B|-----------1-----------1-------------------------|
G|---------2-----------2-----------0h4---------0h4-|
D|-----0h3---------0h3-----------2-----------2-----|
A|---3-----------3-----------2/3---------2/3-------|
E|-1-----------1-----------0-----------0-----------|

-Lead-
   |           |           |           |           
   1 2 3 4 5 6 1 2 3 4 5 6 1 2 3 4 5 6 1 2 3 4 5 6
e|-------------------------------------------------|
B|---------------------13--12----------------------|
G|-10~~--------------------------9~~---------------|
D|-------------------------------------------------|
A|-------------------------------------------------|
E|-------------------------------------------------|

[Part X]

-Rhythm-
   F                       F#dim
   |           |           |           |           
   1 2 3 4 5 6 1 2 3 4 5 6 1 2 3 4 5 6 1 2 3 4 5 6
e|-------------------------------------------------|
B|-----------1-----------1-----------1-----------1-|
G|---------2-----------2-----------2-----------2---|
D|-----0h3---------0h3---------1t4---------1t4-----|
A|---3-----------3-----------3-----------3---------|
E|-1-----------1-----------2-----------2-----------|

-Lead-

   |           |           |           |           
   1 2 3 4 5 6 1 2 3 4 5 6 1 2 3 4 5 6 1 2 3 4 5 6
e|-------------------------------------------------|
B|-------15------15--------------------------------|
G|-----12--14--12--14~~----------------------------|
D|-------------------------------12----------------|
A|-----------------------------10--12~~------------|
E|-------------------------------------------------|

[Part X!]

-Rhythm-
   G6                      G#dim
   |           |           |           |           
   1 2 3 4 5 6 1 2 3 4 5 6 1 2 3 4 5 6 1 2 3 4 5 6
e|-------------------------------------------------|
B|---------0h3---------0h3-------------------------|
G|-------0-----------0-------------4h7---------4h7-|
D|---0h2---------0h2---------0h3h6-------0h3h6-----|
A|-------------------------------------------------|
E|-3-----------3-----------4-----------4-----------|

-Lead-

   |           |           |           |           
   1 2 3 4 5 6 1 2 3 4 5 6 1 2 3 4 5 6 1 2 3 4 5 6
e|-------12------12--------------15----------------|
B|-----10--12--10--12~---------13--151312~~--------|
G|-------------------------------------------------|
D|-------------------------------------------------|
A|-------------------------------------------------|
E|-------------------------------------------------|

[Outro]

-Rhythm-
   A7sus2
   |           |           |           |           
   1 2 3 4 5 6 1 2 3 4 5 6 1 2 3 4 5 6 1 2 3 4 5 6
e|-------------------------------------------------|
B|-----------0-----------0-----------0-3p0---------|
G|---------0-----------0-----------0-------0-------|
D|-------2-----------2-----------2-----------2-----|
A|-0-2-3-------0-2-3-------0-2-3---------------3-2-|
E|-------------------------------------------------|


************************************

| h   Hammer-on
| p   Pull-off
| t   Tapping
| /   Slide up
| ~   Vibrato

************************************
Suggest correction
Creating personal tab
Creating personal tab
You can edit any tab online and save it as your Personal.

You can edit, replace or remove any tab part or add personal notes – all changes will be seen only by you.

Personal tabs can be accessed anytime from any device, even offline.
Learn more »
Give kudos to tab author, rate the tab!
1 2 3 4 5
comments
print report bad tab
guest
You may want to rate the tab now too:
select rating
Wanna post a correction for this tab? Suggest correction