Oops, an error
Loading. Please wait.

Sarias Song bass

version 1
version 1

Whole song

Interactive

407 views 3 this week
1 commentread comment
1 2 3 4 5
1 last vote to show rating
add to favorites
×
Save as Personal and add changes to this tab that will be seen only by you. Learn more ›
×
You can save this tab as Personal to edit and correct it or add notes. All changes will be seen only by you. Learn more »
launch autoscroll
font size
0
reset
guitar tuner
edit
Autoscroll
slow
fast
+/-
esc
set tempo
stop
G|------------------------9-7------------------------------------------------|
D|----7-9-----7-9-----7-9------9-10-9----------------------------------------|
A|--8-------8-------8-----------------10-7-----7-10-7------------------------|
E|------------------------------------------10-------------------------------|

G|------------------------9-7-------9----------------------------------------|
D|----7-9-----7-9-----7-9------9-10---10-----9-------------------------------|
A|--8-------8-------8--------------------10----10----7-----------------------|
E|------------------------------------------------10-------------------------|

G|-----------------------------------------------------7-9-----------|
D|-----------------9--10-9------------------------9-10---------------|
A|-----------10-12-------------------------10-12---------------------|
E|--10-12-13----------------12---10-12-13----------------------------|

G|-----------------------------------------------------------------------------------|
D|------------------9-10-9--------------------------9-7-10-9-12-10--14-15--12-14-----|
A|------------10-12---------7----7-5-8-7-10-8-12-10----------------------------------|
E|---10-12-13------------------------------------------------------------------------|

            
            
Suggest correction
Creating personal tab
Creating personal tab
You can edit any tab online and save it as your Personal.

You can edit, replace or remove any tab part or add personal notes – all changes will be seen only by you.

Personal tabs can be accessed anytime from any device, even offline.
Learn more »
Give kudos to tab author, rate the tab!
1 2 3 4 5
comments
print report bad tab
1 comment total.
0 reply
kmhisepic 10 May 07, 2017 09:22 PM

Super well done tab, thank you for this. Us bassists don't get a lot of love sometimes when it comes to songs like this so I appreciate it a lot

guest
You may want to rate the tab now too:
select rating
Wanna post a correction for this tab? Suggest correction