Oops, an error
Loading. Please wait.

Song Of Healing Tab

version 2
version 2

Whole song

  • I made this tab for people who might prefer a high... Show more
  • This is a kind of "Fingerstyle" tab. Its rather simple to play though.
  • This version of the song is simplified since it do... Show more
  • A bit simpler of a tab to play then some of the ot... Show more

Interactive

25,020 views 45 this week
5 commentsread comments
1 2 3 4 5
x 24
add to favorites
×
Save as Personal and add changes to this tab that will be seen only by you. Learn more ›
launch autoscroll
font size
0
reset
how to read this tab
guitar tuner
Autoscroll
slow
fast
+/-
esc
set tempo
stop
Author
Difficulty
intermediate
Song of Healing

Originally By Koji Kondo (on Piano)

Now by Me, Mathenroze Dix (pabloglald@hotmail.com)

Forte:
e|-----|  
B|-----|  
G|-----|  
D|-----|  First, Hold this for 8 seconds aprox (on acoustic guitar),
A|--3--|  when the strings stop of sound, play the next:
E|--1--|  



e|--------------------------------------------------|
B|----0-----------0-----------0---------------------|
G|--------2-----------2-----------2-----------------|
D|------------3-----------3-----------2-0-2---------|  2 times
A|------3---3---3---3---3---3---3---3-------2-2-2---|
E|--------------------------------------------------|

e|--------------------------------------------------|
B|--------------------------------------------------|
G|--------------------------------------------------|
D|--3-----------3-----------3---2-------------------|
A|------3---2-------3---2-----------2-0-2-----------|
E|----1---1---1---1---1---1---0---0-------0-0-0-----|

e|--------------------------------------------------|
B|----------------------------------0---------------|
G|--------------------------------------0-----------|
D|--3-----------3-----------3---2-----2-------------|
A|------3---2-------3---2---------------------------|
E|----1---1---1---1---1---1---0---0-----------------|

e|--------------------------------------------------|
B|--------------3---3---3---------------1-----------|
G|--2---2---2-----2---2---2-0---0---0-------0-------|
D|----3---3---3---------------2---2---2---2---------|
A|--------------------------------------------------|
E|--------------------------------------------------|

e|--------------------------------------------------|
B|--------------------------------------------------|
G|--------------3---3---3-----------2---------------|
D|--3---3---3-----3---3---3-2---0-------2-----------|
A|----5---5---5---------------3---3---3-------------|
E|--------------------------------------------------|

e|--------------------------------------------------|
B|--------------3---3---3---------------1-----------|
G|--2---2---2-----2---2---2-0---0---0-------0-------|
D|----3---3---3---------------2---2---2---2---------|
A|--------------------------------------------------|
E|--------------------------------------------------|

e|--------------------------------------0----|
B|--------------0---1---3-------0---3--------|
G|------0---2---------------2----------------|
D|--3-------------3---3---3---3---3---3---2--|
A|----3---3---3------------------------------|
E|-------------------------------------------|

That's all, it isn't difficult, thanks to all! 
Gute Nacht
(Saludos para mis amigos!!!)¬¬
Suggest correction
comments
print report bad tab
5 comments total. Showing first comments.
-2 reply
JuanBriceno 10 Apr 29, 2011 09:59 PM

I'm pretty sure this is how it really goes for that riff

e|--------------------------------------------------|
B|--------------------------------------------------|
G|--------------------------------------------------|
D|--3-----------3-----------3---2-------------------|
A|------3---2-------3---2-----------2-0-2-----------|
E|----5---5---5---5---5---5---3---3-------3-3-3-----|

0 reply
birte-elise 11 Sep 01, 2014 11:15 AM

None of this sounds right to me idek maybe i'm just not doing it correctly or something

guest
You may want to rate the tab now too:
select rating
Wanna post a correction for this tab? Suggest correction