Oops, an error
Loading. Please wait.

Song Of Healing tab

version 4
version 4

Whole song

  • I made this tab for people who might prefer a high... Show more
  • This is a kind of "Fingerstyle" tab. Its rather simple to play though.
  • This version of the song is simplified since it do... Show more
  • A bit simpler of a tab to play then some of the ot... Show more

Interactive

392 views 6 this week
1 commentread comment
1 2 3 4 5
2 more votes to show rating
add to favorites
×
Save as Personal and add changes to this tab that will be seen only by you. Learn more ›
×
You can save this tab as Personal to edit and correct it or add notes. All changes will be seen only by you. Learn more »
launch autoscroll
font size
0
reset
how to read this tab
guitar tuner
edit
Autoscroll
slow
fast
+/-
esc
set tempo
stop
About this tab version
This is a kind of "Fingerstyle" tab. Its rather simple to play though. Was this info helpful? Yes No
This is a kind of "Fingerstyle" tab. Its rather simple to play though.
I used as reference a piano sheet by Rachel Bell.
Hope you guys enjoy playing it !

Song of Healing :
Tuning: Drop D

      E  E  E  E  E  E  E  E     E  E  E  E  E  E  E  E     E  E  E  Q    Q    E   
E||---------------------------|--------------------------|------------------------|
B||---0-----------------0-----|--------------0-----------|-----------0----0----0--|
G||*--------2-----------------|--2-----------------2-----|------------------------|
D||*--------------3-----------|--------3-----------------|--2--0--2---------------|
A||---3--3-----3-----3--3--3--|-----3-----3-----3-----3--|------------------------|
D||---3-----------------------|--------------3-----------|--------2---------------|


  E  E  E  E  E  E  E  E     E  E  E  E  E  E  E  E     E  E  E  Q    Q    E   
|--------------------------|--------------------------|------------------------|
|--0-----------------0-----|--------------0-----------|-----------0----0----0--|
|--------2-----------------|--2-----------------2-----|------------------------|
|--------------3-----------|--------3-----------------|--2--0--2---------------|
|--3--3-----3-----3--3--3--|-----3-----3-----3-----3--|--------2---------------|
|--3-----------------------|--------------3-----------|--------2---------------|


  E  E  E  E  E  E  E  E     E  E  E  E  E  E  E  E     E  E  E  Q    Q    E   
|--------------------------|--------------------------|------------------------|
|--------------------------|--------------------------|------------------------|
|--------------------------|-----------------0-----0--|-----------0----0----0--|
|--3-----------------3-----|--------------3-----2-----|------------------------|
|-----0--3--0--2--0-----0--|--3--0--2--0--3-----------|--2--0--2---------------|
|--0-----------------0-----|--------------------------|------------------------|


  E  E  E  E  E  E  E  E     E  E  E  E  E  E  E  E     E  E  E  Q    Q    E   
|--------------------------|--------------------------|------------------------|
|--------------------------|--------------------------|------------------------|
|--------------------------|-----------------0-----0--|-----------0----0----0--|
|--3-----------------3-----|--------------3-----2-----|------------------------|
|-----0--3--0--2--0-----0--|--3--0--2--0--3-----------|--2--0--2---------------|
|--0-----------------0-----|--------------------------|------------------------|


  E  E  E  E  E  E  E  E     E  E  E  E  E  E  E  E     E  E  E  E  E  E  Q     
|--------------------------|--------------------------|-----------------0-------|
|--------------------3-----|--3-----3-----------------|--------1----------------|
|--2-----2-----2-----2-----|--2-----2-----0-----0-----|--0-----------0----------|
|--3-----3-----3--------3--|--------------2-----2-----|--2----------------------|
|--------------------------|--------------------------|--------0-----------3----|
|-----3-----3-----3--------|-----3-----3-----3-----3--|-----3-----3-----3-------|


  E  E  E  E  E  E  E  E     E  E  E  E  E  E  E  E     E  E  E  E  Q.     E   
|--------------------------|--------------------------|------------------------|
|--------------------------|--------------------------|--------1---------------|
|--------------------3-----|--3-----3-----3-----------|--------2---------------|
|--3-----3-----3--------0--|--3--0--3--0--3--0--2-----|--0--------2--2---------|
|-----5-----5-----5--------|--------------------3--3--|-----3--0-----3------0--|
|--5-----3-----0-----5-----|--------------------3-----|-----------2------------|


  E  E  E  E  E  E  E  E     E  E  E  E  E  E  E  E     E  E  E  E  E  E  E  E   
|--------------------------|--------------------------|--------------------------|
|--------------------3-----|--3-----3-----------------|-----1--------------------|
|--2-----2-----2-----2-----|--2-----2--0-----0-----0--|-----------0--------------|
|--3--3--3--3--3--3-----3--|-----3--0--2--2--2--2--2--|-----2--2--2--2-----3-----|
|--------------------------|-----------------0-----3--|-----0-----------3--------|
|--------------------------|--------------------------|--2-----------------3--3--|


  E  E  E  E  E  E  E  E     E  E  E  E  E  E  Q                 E  E  E  E  E  E  E  E   
|--------------------------|--------------------0----|--------||--------------------------|
|--------------------1-----|--------0-----3----------|--------||--0-----------------0-----|
|--0-----2-----3-----------|--2----------------------|-------*||--------2-----------------|
|--------0-----3-----3-----|--3--3--3--3--3-----2----|-------*||--------------3-----------|
|--------------------------|--2-----0--------0-------|--------||--3--3-----3-----3--3--3--|
|-----3-----3-----3-----3--|--------------------2----|--------||--3-----------------------|


  E  E  E  E  E  E  E  E     E  E  Q.     Q    E    
|--------------------------|-----------------------||
|--------------0-----------|-----------------------||
|--2-----------------2-----|-----------------------||
|--------3-----------------|--2--0--2--------------||
|-----3-----3-----3-----3--|--------2--------------||
|--------------3-----------|--------2--------------||


Duration Legend
---------------
W - whole
H - half
Q - quarter
E - 8th

            
            
Suggest correction
Creating personal tab
Creating personal tab
You can edit any tab online and save it as your Personal.

You can edit, replace or remove any tab part or add personal notes – all changes will be seen only by you.

Personal tabs can be accessed anytime from any device, even offline.
Learn more »
Give kudos to tab author, rate the tab!
1 2 3 4 5
comments
print report bad tab
1 comment total.
0 reply
Nadiiran 10 Mar 01, 2017 07:07 AM

This is way deeper than the original but i love it!

guest
You may want to rate the tab now too:
select rating
Wanna post a correction for this tab? Suggest correction