Oops, an error
Loading. Please wait.

Song Of Healing tab

version 5
version 5

Whole song

  • I made this tab for people who might prefer a high... Show more
  • This is a kind of "Fingerstyle" tab. Its rather simple to play though.
  • This version of the song is simplified since it do... Show more
  • A bit simpler of a tab to play then some of the ot... Show more

Interactive

103 views 1 this week
no commentswrite comment
1 2 3 4 5
3 more votes to show rating
add to favorites
×
Save as Personal and add changes to this tab that will be seen only by you. Learn more ›
×
You can save this tab as Personal to edit and correct it or add notes. All changes will be seen only by you. Learn more »
launch autoscroll
font size
0
reset
how to read this tab
guitar tuner
edit
Autoscroll
slow
fast
+/-
esc
set tempo
stop
Author
Difficulty
About this tab version
This version of the song is simplified since it does not hit all of the notes that are used in the original piano version. Was this info helpful? Yes No
Koji Kondo - Song of Healing (from Majora's Mask) - Ukulele Tab
leetmeatz
3/6/17

Standard GCEA tuning

At the start of the song play the chord shown below and let it ring out for approximately 8 seconds:

A |--------------------------------------------------------------------------|
E |--1-----------------------------------------------------------------------|      
C |--0-----------------------------------------------------------------------|
G |--------------------------------------------------------------------------|

[Intro]
A |--2-----------------|2-----------------|2--------------------|---2--2--2--|
E |--1-----------1-----|1-----------1-----|1-----------0-----0--|---2--2--2--|      x2
C |--0--0-----0--0--0--|0--0-----0--0--0--|0--0-----0-----2-----|---3--3--3--|
G |--2-----2-----------|2-----2-----------|2-----2--------------|---4--4--4--|

[Verse 1]
A |--8------------------|8------------------|8---------------------|2--2--2--|
E |--8------8-----7-----|8------8-----7-----|8------7-----7--5--7--|2--2--2--|
C |--5---5-----5-----5--|5---5-----5-----5--|5---4--4--4--6--3--6--|3--3--3--|
G |---------------------|-------------------|-------------------4--|4--4--4--|

[Verse 2]
A |--8------------------|8------------------|8------------2-----2--|2--2--2--|
E |--8------8-----7-----|8------8-----7-----|8------7-----0--0--3--|2--2--2--|
C |--5---5-----5-----5--|5---5-----5-----5--|5---4--4--4--------2--|3--3--3--|
G |---------------------|-------------------|-------------------0--|4--4--4--|

[Verse 3]
A |-----------5--5--5--|---------3-----------3-----|
E |--5--5--5--5--5--5--|3--3--3--0--0--3--0-----0--|
C |--5--5--5-----------|4--4--4--0-----2-----------|
G |--------------------|---------------0-----------|

[Verse 4]
A |-----------2--2--2--|-----------------------------------|
E |--1--1--1--1--1--1--|0------------5--0--------------5v--|
C |--2--2--2-----------|0--0--2h--2--4--0--0--2h--0p-------|
G |--------------------|-----------------------------------|

[Verse 5] 
(same as Verse 3)
A |-----------5--5--5--|---------3-----------3-----|
E |--5--5--5--5--5--5--|3--3--3--0--0--3--0-----0--|
C |--5--5--5-----------|4--4--4--0-----2-----------|
G |--------------------|---------------0-----------|

[Verse 6]
A |--------------------|-------------------|-------------------|7-------7--|
E |--1-----1-----1-----|7-----8-----10-----|5-----7-----10-----|7----7-----|
C |-----0--0--0--0--0--|5--5--5--5--5---5--|5--5--5--5--5---5--|8--8-------|
G |--------0-----2-----|-------------------|------------7------|-----------|

[Outro]
A |--2-----------------|2-----------------|2--------------------|---2--2--2--|
E |--1-----------1-----|1-----------1-----|1-----------0-----0--|---2--2--2--|      x2
C |--0--0-----0--0--0--|0--0-----0--0--0--|0--0-----0-----2-----|---3--3--3--|
G |--2-----2-----------|2-----2-----------|2-----2--------------|---4--4--4--|


************************************

| h  Hammer on
| v  Vibrato 
| p  Pull-Off
| /  Slide up
| \  Slide down
 

************************************

            
            
Suggest correction
Creating personal tab
Creating personal tab
You can edit any tab online and save it as your Personal.

You can edit, replace or remove any tab part or add personal notes – all changes will be seen only by you.

Personal tabs can be accessed anytime from any device, even offline.
Learn more »
Give kudos to tab author, rate the tab!
1 2 3 4 5
comments
print report bad tab
guest
You may want to rate the tab now too:
select rating
Wanna post a correction for this tab? Suggest correction