Oops, an error
Loading. Please wait.

Song Of Time Tab

version 1
version 1

Whole song

Interactive

64,576 views 111 this week
9 commentsread comments
1 2 3 4 5
excellent!
x 28
add to favorites
launch autoscroll
font size
0
reset
how to read this tab
guitar tuner
Tab Pro tools
  • play this tab
  • loop segment
  • change instrument
  • show fretboard
  • metronome
×
Best way to learn
"Song Of Time"
Autoscroll
slow
fast
+/-
esc
set tempo
stop
Contributor
e----------------------------------------------------|
B----------------------------------------------------|
G--2----------2-----------2-5-4--0-----0-2-----------|
D------0---3------0---3-------------3------0----2-0--|
A---------------------------------------------3------|
E----------------------------------------------------|

----------
comments
print report bad tab
9 comments total. Showing first comments.
+3 reply
cheesetabman wrote on February 12 2008, 03:42 am

yeeeeeaaaaaah!!!!!!!!!!!!!!!!!!!! great tabbed, axesoo

+3 reply
darkchicken50 wrote on February 14 2008, 07:08 am

I find this an easier one to play, and sounds more true to the notes, but great job on yours too!


e|-----------------------------------------|
B|------------------1-0--------------------|
G|--2------2------2-----0---0-2------------|
D|----0--3---0--3---------3-----0---2-0----|
A|--------------------------------3--------|
E|-----------------------------------------|

0 reply
lupesala wrote on August 14 2008, 05:19 pm

great tab

I want to post or [tab]
guest
You may want to rate the tab now too:
select rating
Please do not post tabs as comments. Select "correction" instead!