Oops, an error
Loading. Please wait.

Song Of Time Tab

version 1
version 1

Whole song

Interactive

68,929 views 90 this week
9 commentsread comments
1 2 3 4 5
x 30
add to favorites
launch autoscroll
font size
0
reset
how to read this tab
guitar tuner
Autoscroll
slow
fast
+/-
esc
set tempo
stop
Help us to improve Ultimate-Guitar.com Take our survey!
×
Author
Difficulty
novice
Koji Kondo - Song Of Time
Tuning: standard.
No Capo.


[Intro]

e|-----------------------------------------|
B|------------------1-0--------------------|
G|--2------2------2-----0---0-2------------|
D|----0--3---0--3---------3-----0---2-0----|
A|--------------------------------3--------|
E|-----------------------------------------|
Suggest correction
comments
print report bad tab
9 comments total. Showing first comments.
+3 reply
cheesetabman 635 Feb 12, 2008 03:42 AM

yeeeeeaaaaaah!!!!!!!!!!!!!!!!!!!! great tabbed, axesoo

+3 reply
darkchicken50 10 Feb 14, 2008 07:08 AM

I find this an easier one to play, and sounds more true to the notes, but great job on yours too!


e|-----------------------------------------|
B|------------------1-0--------------------|
G|--2------2------2-----0---0-2------------|
D|----0--3---0--3---------3-----0---2-0----|
A|--------------------------------3--------|
E|-----------------------------------------|

0 reply
lupesala 10 Aug 14, 2008 05:19 PM

great tab

guest
You may want to rate the tab now too:
select rating
Wanna post a correction for this tab? Suggest correction