Oops, an error
Loading. Please wait.

Zeldas Lullaby Tab

version 3
version 3

Whole song

  • This version is based on position 1 of the G Major... Show more

Interactive

103 views 3 this week
no commentswrite comment
1 2 3 4 5
3 more votes to show rating
add to favorites
launch autoscroll
font size
0
reset
how to read this tab
guitar tuner
Autoscroll
slow
fast
+/-
esc
set tempo
stop
Help us to improve Ultimate-Guitar.com Take our survey!
×
Author
Difficulty
novice
About this tab version
This version is based on position 1 of the G Major scale, and sounds accurate to the Ocarina of Time version on N64. Was this info helpful? Yes No
e|--------------------------------------------------------------------------|
B|--------------------------------------------------------------------------|
G|--------------------------------2-----------------------------------------|
D|-----------------------------------5--------------------------------------|
A|--2--5-----------2--5-----2--5--------5--3--2-----------------------------|
E|--------5--3--5--------5-----------------------5--------------------------|

e|--------------------------------------------------------------------------|
B|--------------------------------------3-----------------------------------|
G|--------------------------------2-----------------------------------------|
D|-----------------------------------5--------------------------------------|
A|--2--5-----------2--5-----2--5--------------------------------------------|
E|--------5--3--5--------5--------------------------------------------------|

e|-----------------------------------------------------------3--------------|
B|--3-----------------------------------3-----------------------------------|
G|-----5--4--5--4-----5--4--2--4--2--------5--4--5--4-----5-----------------|
D|-----------------5-----------------2-----------------5--------------------|
A|--------------------------------------------------------------------------|
E|--------------------------------------------------------------------------|

Repeat the whole thing 2x (or however many times you like)

Suggest correction
Give kudos to tab author, rate the tab!
1 2 3 4 5
comments
print report bad tab
guest
You may want to rate the tab now too:
select rating
Wanna post a correction for this tab? Suggest correction