Oops, an error
Loading. Please wait.

Valiente Tab

by Koko
14,049 views 18 this week
no commentswrite comment
1 2 3 4 5
excellent!
x 3
add to favorites
launch autoscroll
font size
0
reset
how to read this tab
guitar tuner
Tab Pro tools
  • play this tab
  • loop segment
  • change instrument
  • show fretboard
  • metronome
×
Best way to learn
"Valiente"
Autoscroll
slow
fast
+/-
esc
set tempo
stop
Contributor
Difficulty
novice
El intro se toca acompañando con G

e|------10-------10---10--|
B|--7h8------7h8----8-----|
G|------------------------| x6
D|------------------------|
A|------------------------|
E|------------------------|

G                    Bm
Empezado a hablar de ti
                  Em
a decirle a la gente
                  C
creo que me enamore
                              G
de un amor que es poco prudente
                     Bm
empezaba a pensar en ti
                    Em
a cantar tus canciones
                C
y me largo a reír

CORO

C           D
Dime como fue
Bm             Em
que me enamoraste
C                     D
dime en que momento paso
Bm                   Em
que empece a extrañarte
C                            D
y hora dime que tengo que hacer
Bm               G Em
para ser mas valiente
C                     D        G
y quedarme un ratito aquí contigo


G                      Bm
Porque si algo yo aprendí
                        Em
es que nada es por siempre 
                       C
y que mientras mas me de
                   G
mas me daña la gente
                       Bm
así que si me vas a herir
                  Em
mejor no lo lamentes
                  C
creo que me prepare


CORO

C           D
Dime como fue
Bm             Em
que me enamoraste
C                     D
dime en que momento paso
Bm                   Em
que empece a extrañarte
C                            D
y hora dime que tengo que hacer
Bm               G Em
para ser mas valiente
C                     D        G
y quedarme un ratito aquí contigo


Solo:
Va acompañado con los acordes del coro

e|----------|---------|---------|---------|----------------|
B|----------|---------|---------|---------|-----------8----|
G|----------|---------|---------|---------|---------7---9--|
D|----------|---------|---------|--7------|-----7-9--------|
A|--7-------|--5-7-9--|--7-9-9--|-----10--|--10------------|
E|----------|---------|---------|---------|----------------|


e|-----------------|--------------------|
B|-----------------|--------7-9b-8-7-7--|
G|--7h9--7h9--7----|----7-9-------------|
D|--------------9--|--9-----------------|
A|-----------------|--------------------|
E|-----------------|--------------------|


e|------10-------10---10--|------10-------10---10--|
B|--7h8------7h8----8-----|--7h8------7h8----8-----|
G|------------------------|------------------------|
D|------------------------|------------------------|
A|------------------------|------------------------|
E|------------------------|------------------------|


e|------7--------7-----|--5b-------5--|--7-10-5---5--|
B|--6h7------6h7----7--|-----8-5-8----|---------8----|
G|---------------------|--------------|--------------|
D|---------------------|--------------|--------------|
A|---------------------|--------------|--------------|
E|---------------------|--------------|--------------|


C                     D        G
y quedarme un ratito aquí tranquilo 
e|--------------|
B|--10b-8-10----|
G|--------------|

C                     D        G
y quedarme un ratito aquí contigo
e|--11b-14b-----|
B|----------12--|
G|--------------|

C                     D        G
y quedarme un ratito aquí dormido
e|------10-------10---10--|------7--------7---7--|
B|--7h8------7h8----8-----|--6h7------6h7---7----|
G|------------------------|----------------------|
D|------------------------|----------------------|
A|------------------------|----------------------|
E|------------------------|----------------------|


e|------10-------10---10--|
B|--7h8------7h8----8-----|
G|------------------------| x5
D|------------------------|
A|------------------------|
E|------------------------|

y en ultimo se hace

e|------10-------10---10----|
B|--7h8------7h8----8----8--|
G|--------------------------|
D|--------------------------|
A|--------------------------|
E|--------------------------|


para el rasgueo buscame en sergioconverse1@hotmail.com 
gracias y que la disfruten o busquenme en facebook -sergio chavez mondaca-
comments
We did not receive enough feedback on this tab! Please rate:
print report bad tab
1 2 3 4 5
I want to post or [tab]
guest
You may want to rate the tab now too:
select rating
Please do not post tabs as comments. Select "correction" instead!