Oops, an error
Loading. Please wait.

Valiente tab

version 1
version 1

Whole song

106 views 3 this week
no commentswrite comment
1 2 3 4 5
3 more votes to show rating
add to favorites
×
Save as Personal and add changes to this tab that will be seen only by you. Learn more ›
×
You can save this tab as Personal to edit and correct it or add notes. All changes will be seen only by you. Learn more »
launch autoscroll
font size
0
reset
how to read this tab
guitar tuner
edit
Autoscroll
slow
fast
+/-
esc
set tempo
stop
Esta canción va dedicada para el amor de mi vidad.. mi lixixita =)
la saqué solamente para grabarsela, la toqué y se la canté en una
grabación.

Espero les guste y la hallen correcta. Salu2

P.D.: La saqué para guitarra acústica/electroacústica.

Consultas, sugerencias: neo_miky_15@

INTRO

e|-----10------10-10-----10-----10-10-|
B|-7h8-----7h8-------7h8----7h8-------|
G|------------------------------------|
D|------------------------------------|
A|------------------------------------|
E|------------------------------------|

   G
e|-----10------10-10-----10-----10-10-|
B|-7h8-----7h8-------7h8----7h8-------|
G|------------------------------------|     X2
D|------------------------------------|
A|------------------------------------|
E|------------------------------------|

Estrofas:
G                       Bm
He empezado a hablar de tí
                  Em
A decirle a la gente
                  C
Creo que me enamoré
                              G
De un amor que es poco prudente

G                       Bm
He empezado a pensar en ti
                    Em
A cantar tus canciones
                C
Y me largo a reír ...aaaaaaaAAAAAAAÁÁÁÁÁH...

Coro:
C           D
Dime como fue
        Bm     Em
Que me enamoraste
C                      D
Dime en qué momento pasó
        Bm           Em
Que empezé a extrañarte
         C                   D
Y ahora dime que tengo que hacer
      Bm           Em            A
Para ser más valienteeeeeEEEEEÉÉÉÉH...
     (C)                D       G   C D
Y quedarme un ratito aquí, contigo

Estrofas:
G                      Bm
Porque si algo yo aprendí
                        Em
Es que nada es por siempre
                      C
Que mientras más me ven
                   G
Más me daña la gente

G                   Bm
Así que si te vas a ir
                  Em
Mejor no lo lamentes
                  C
Creo que me preparé ...aaaaaaaAAAAAAAÁÁÁÁÁH...

Coro:
C           D
Dime como fue
        Bm     Em
Que me enamoraste
C                      D
Dime en qué momento pasó
        Bm           Em
Que empezé a extrañarte
         C                   D
Y ahora dime que tengo que hacer
      Bm           Em            A
Para ser más valienteeeeeEEEEEÉÉÉÉH...
     (C)                D       G
Y quedarme un ratito aquí, contigo

***Solo:
   C     D      Bm    Em         C            D         Bm   Em D
e|---------------------------------------------------------------------|
B|-------7----7-7--10-8---------------------------------7-9b-8-7-------|
G|-9-7-9----9-----------------------9-7/9-7/9-7---7h9h7----------------|
D|-----------------------7-9-7-9/11-------------9----------------------|
A|---------------------------------------------------------------------|
E|---------------------------------------------------------------------|

   C                   D                   Bm
e|-----10-----10-10-10-----10-----10-10-10-----7-----7-7-7-|
B|-7h8----7h8----------7h8----7h8----------7h8---7h8-------|
G|---------------------------------------------------------|
D|---------------------------------------------------------|

   Em        D    A
e|-------------------10----------|
B|-10b-8---8h10--10b----10b-8-10-|
G|-------9-----------------------|
D|-------------------------------|


      C                D        Em           A
Y quedarme un ratito aquí, contigo  e|----------|
                                    B|-11b-8-10-|
                                    G|----------|

      C                D        Em          A
Y quedarme un ratito aquí, contigo  e|---------|
                                    B|-15b-12v-|
                                    G|---------|

      C                   D                G
   e|-----10-----10---10------7-----7---7------10-----10---10-|
   B|-7h8----7h8----8-----7h8---7h8---8----7h8----7h8----8----|
   G|---------------------------------------------------------|
   D|---------------------------------------------------------|
Y  quedarme  un  ratito aquí,              dormidooo...

   C         D         G
e|-----10-----10---10------10-----10---10-----10----10---10-|
B|-7h8----7h8----8-----7h8----7h8----8-----7h8---7h8---8----|
G|----------------------------------------------------------|
D|----------------------------------------------------------|

   G
e|-----10-----10---10------10------10-----10-|
B|-7h8----7h8----8-----7h8----7h8------8-----|
G|-------------------------------------------|
D|-------------------------------------------|

B=bend       (C)=DO fantasma -> Es opcional si quieren lo tocan o no,
/=slide                         suena más bonito si lo tocan, pero en
v=vibrato                       la canción original no aparece esta
                                nota.
Suggest correction
Creating personal tab
Creating personal tab
You can edit any tab online and save it as your Personal.

You can edit, replace or remove any tab part or add personal notes – all changes will be seen only by you.

Personal tabs can be accessed anytime from any device, even offline.
Learn more »
Give kudos to tab author, rate the tab!
1 2 3 4 5
comments
print report bad tab
guest
Wanna post a correction for this tab? Suggest correction