Oops, an error
Loading. Please wait.

Elmn Tarkoitus Tab

1,687 views 9 this week
no commentswrite comment
1 2 3 4 5
please rate
add to favorites
launch autoscroll
font size
0
reset
how to read this tab
guitar tuner
Autoscroll
slow
fast
+/-
esc
set tempo
stop
Help us to improve Ultimate-Guitar.com Take our survey!
×
Author
Artisti: Kolmas Nainen
Albumi: Elämän Tarkoitus
Kappale: Elämän Tarkoitus

Itse viritän kitaran puoli sävelaskelta alaspäin koska sävellaji on mukavampi 
silloin. Eli vire on siis Eb Ab Gb Db Bb Eb

Intro (voi ja ehkä kannattaakin soittaa oktaavit h kieleltä kaikille alun sävelille)
 F           Am            Eb                 C
|-----------|-------------|------------------|-----------------|
|-----------|-------------|------------------|-----------------|
|-----------|-------------|------------------|-----------------|
|-/7--------|-------10-10-|-10-8-8-7-7-5-5-3-|-3-2-2-0-0-3-3-0-|
|-----------|-------------|------------------|-----------------|
|-----------|-------------|------------------|-----------------|

 F           Am            Bb        F              Eb
|-----------|-------------|------------------------|---6--------|
|-----------|-------------|-13-13-13-11-11-11-10---|-----8--s11-|
|-----------|-------------|-12-12-12-10-10-10------|------------|
|-/7----5-3-|-2-/8-8--7---|-10-10-10-8--8--8--7----|------------|
|-----------|-------------|------------------------|------------|
|-----------|-------------|----------------------5-|-6----------|

 Eb
|-------------|   (Tämä on nyt sellainen versio introsta jonka voi soittaa
|-------------|    yhdellä kitaralla. Ajotukset on kuunneltava itse, mutta 
|-------------|    ainakin minusta kuulostaa ihan kivalta)
|--/10-8-10-7-|
|-------------|
|-------------|

Verse 1

Dm                     C              Dm
Ei oo ihme etten jaksa ajatella
C
asioita
Dm            C                 [Fill 1]Bbsus4 Bb  Absus4 Ab C               
Pääni täynnä kaikenlaista joutavaa joka ei kuuluis sinne ollenkaan

Verse 2

Dm            C                         
Tänä yönä mun kroppa valittaa
Dm                  C      [Fill 2]
jokaista kokemaansa kolhua
Bb               Dm                         [Fill 3]
Tänä yönä tunnen heikkouteni tarkemmin kuin koskaan

Kertsi 1

F         Am
Ei vuodet kulu, ne kuluttaa
Eb           [Fill 3] hieman muunneltuna ja nopeutettuna
Puree palan, sitä mutustaa
F          Am
Se minkä koetat jättää taa
Bb    F    Eb    [Fill 4]
muistaa muistuttaa

Välisoitto (kahden kitaran dialogi, mutta soitettavissa myös yhdellä)

 Dm                                C
|---------------------------------|-----------------------------| 
|---------------------------------|-5-6-8-6-5--5-6-8-6-5--5-6-8-|
|---------------------------------|-----------------------------|
|-----7-8-7-5---5-----7-8-7-5---5-|-----------------------------|
|-5-8---------8---5-8---------8---|-----------------------------|
|---------------------------------|-----------------------------|x2

Verse 3 (samalla tapaa kuin verse 1)

Verse 4 (samalla tapaa kuin verse 2)

Kertsi 2 (samalla tapaa kuin kertsi 1)

Soolo

 Dm                  C                Dm
|-------------------|----------------|-------------------|
|-------------------|----------------|-------------------|
|-------------------|----------------|-------------------|
|-------5-5---5h7p5-|---5------------|-------5-5---5h7p5-|
|-5-5-8-------------|-8------b5------|-5-5-8-------------|
|-------------------|-----------8----|-------------------|
 C                         Bb
|-------------------------|--------------------------------|
|-------------------------|-------------11-13-11-b13p11p10-|
|--------------7----------|-------10-12--------------------|
|---5---10--10------------|-10-12--------------------------|
|-8--------------10s8-7-8-|--------------------------------|
|-------------------------|--------------------------------|
 Dm                              [Fill 3] 
|-13----------------------------|------------------------|
|----10-13----------------------|------------------------|
|----------10-12----10----------|------------------------|
|----------------12-------------|-----10-----10----------|
|----------------------12-11-10-|-8-7----8-7----8-7-3----|
|-------------------------------|------------------------|

|-----------------------|
|-----------------------|
|-----------------------|
|-----------------------|
|-1-0-1h3p1p0h1p0---0---|
|-----------------3---1-|

Kertsi 3 x2 (samalla tavalla kuin aikaisemmatkin)

Välisoittoa loppuun asti


Fillit

[Fill 1]
|-3-------|------------|--------------------|
|-3p1-1---|-6--5-------|-5------------------|
|-----2p0-|-5--5--6--5-|-5------------------|
|---------|-5--5--6--6-|-5--------3---------|
|---------|-3--3--6--6-|-3----3h5---5p3---5-|
|---------|-------4--4-|----------------5---|

[Fill 2]
|-3-------|
|-3p1-1---|
|-----2p0-|
|---------|
|---------|
|---------|

[Fill 3]
|-------------------------------------------|
|-------------------------------------------|
|-5s7-7-7-7s9-9-9-9s10-10-10-10s12-12-12-10-|
|-x-x-x-x-x-x-x-x-x-x--x--x--x--x--x--x--x--|
|-3s5-5-5-5s7-7-7-7s8--8--8--8-s10-10-10-8--|
|-------------------------------------------|

[Fill 4] (Eb sointu kannattaa soittaa näin tässä tapauksessa)
|-3-3-1---1~-|---------|
|-4-----4-4~-|---------|
|-3-------3~-|-5-3-5-2~|
|-1----------|---------|
|------------|---------|
|------------|---------|


Jos virheitä löytyy niin ilmoittakaa joko kommenteissa tai sähköpostiin
jonatan.kanervo@hotmail.com
Suggest correction
What's this?
You can suggest a correction to this tab. Community and Mods will review your correction and vote to approve or reject it.
comments
We did not receive enough feedback on this tab! Please rate:
print report bad tab
1 2 3 4 5
guest
You may want to rate the tab now too:
select rating
Please do not post tabs as comments. Select "correction" instead!