Oops, an error
Loading. Please wait.

Me Ollaan Ne tab

64 views 12 this week
no commentswrite comment
1 2 3 4 5
2 more votes to show rating
add to favorites
×
Save as Personal and add changes to this tab that will be seen only by you. Learn more ›
×
You can save this tab as Personal to edit and correct it or add notes. All changes will be seen only by you. Learn more »
launch autoscroll
font size
0
reset
how to read this tab
guitar tuner
edit
Autoscroll
slow
fast
+/-
esc
set tempo
stop
Artist: Kolmas Nainen
Album: Me Ollaan Ne (2013)
Song: Me Ollaan Ne

Standard Tuning (EADGBe)
This tab is based on the fantastic chords by tsg9 here on UG


[Intro]
(Guitar 1)
   1  &  2  &  3  &  4  &  | 1  &  2  &  3  &  4  &  | 1  &  2  &  3  &  4  &  | 1  &  2  &  3  &  4  &  |  
e|-------------------------|-------------------------|-------------------------|-------------------------|
B|----3--------2-----------|-------------------------|----3--------2-----------|-------------------------|
G|--------4--------2----4--|-------2--------0--------|--------4--------2----4--|-------2--------0--------|
D|-0-----------------------|--5--------4--------2----|-0-----------------------|--5--------4--------2----|
A|-------------------------|-------------------------|-------------------------|-------------------------|
E|-------------------------|-------------------------|-------------------------|-------------------------|x2

(Guitar 2) (Only on repeat)
   1  &  2  &  3  &  4  &  | 1  &  2  &  3  &  4  &  | 1  &  2  &  3  &  4  &  | 1  &  2  &  3  &  4  &  |  
e|----10-------9--------7--|-------5--------3--------|----10-------9--------7--|-------5--------3--------|
B|--------12-------10------|--8--------7--------5----|--------12-------10------|--8--------7--------5----|
G|-------------------------|-------------------------|-------------------------|-------------------------|
D|-------------------------|-------------------------|-------------------------|-------------------------|
A|-------------------------|-------------------------|-------------------------|-------------------------|
E|-------------------------|-------------------------|-------------------------|-------------------------|


[Verse]
(Guitar 1)
   1  &  2  &  3  &  4  &  | 1  &  2  &  3  &  4  &  | 1  &  2  &  3  &  4  &  | 1  &  2  &  3  &  4  &  |
   D                         D/C#                      G                           
e|-------------5-----------|-------------5-----------|-------------5-----------|-------------5-----------|
B|----3------------3-------|----3------------3-------|----3------------3-------|----3------------3-------|
G|--------2-------------2--|--------2-------------2--|--------2-------------2--|--------2-------------2--|
D|-0-----------------------|-------------------------|-5-----------------------|-5-----------------------|
A|-------------------------|-4-----------------------|-------------------------|-------------------------|
E|-------------------------|-------------------------|-------------------------|-------------------------|x2
     Me  ollaan ne jotka        kerran   kohtasi         Me  ollaan ne joita      sattuma    kuljetti
     Me  ollaan ne jotka        jotka    suuteli            ollaan ne jotka         jotka    rakasti    

(Guitar 2) (Only on repeat)
   1  &  2  &  3  &  4  &  | 1  &  2  &  3  &  4  &  | 1  &  2  &  3  &  4  &  | 1  &  2  &  3  &  4  &  |
e|-------------------------|-------------------------|-------------------------|-------------------------|
B|-------------------------|-------------------------|-------------------------|-------------------------|
G|-7-----------------------|-6-----------7----/9-----|-7-----------------------|-------------------------|
D|-7-----------------------|-7-----------7-----------|-------------------------|-5-----------------------|
A|-------------------------|-------------------------|-------------------------|-------------------------|
E|-------------------------|-------------------------|-------------------------|-------------------------|


[Chorus] (Guitar 2 plays the chords)
   1  &  2  &  3  &  4  &  | 1  &  2  &  3  &  4  &  | 1  &  2  &  3  &  4  &  | 1  &  2  &  3  &  4  &  |
   Em                        A                         Em                        A
e|----0--------2---3----0--|-------------------------|----0--------2---3----0--|-------------------------|
B|--------0----------------|----2--------2---3---/5--|--------0-------------0--|----2--------2-----------|
G|-------------------------|--------2----------------|-------------------------|--------2----------------|
D|-------------------------|-------------------------|-------------------------|-------------------------|
A|-------------------------|-0-----------------------|-------------------------|-0--------------0--2--4--|
E|-0-----------------------|-------------------------|-0-----------------------|-------------------------|
     Me ollaan ne joita      tuuli       heitteli        Me ollaan ne  jotka     yö     kerran peitteli  


[Interlude]
(Guitar 1)
   1  &  2  &  3  &  4  &  | 1  &  2  &  3  &  4  &  |
e|-------------------------|-------------------------|
B|----3--------2-----------|-------------------------|
G|--------4--------2----4--|-------2--------0--------|
D|-0-----------------------|--5--------4--------2----|
A|-------------------------|-------------------------|
E|-------------------------|-------------------------|
   Ne

(Guitar 2) 
   1  &  2  &  3  &  4  &  | 1  &  2  &  3  &  4  &  | 
e|----10-------9--------7--|-------5--------3--------|
B|--------12-------10------|--8--------7--------5----|
G|-------------------------|-------------------------|
D|-------------------------|-------------------------|
A|-------------------------|-------------------------|
E|-------------------------|-------------------------|


[Verse]
(Guitar 1)
   1  &  2  &  3  &  4  &  | 1  &  2  &  3  &  4  &  | 1  &  2  &  3  &  4  &  | 1  &  2  &  3  &  4  &  |
   D                         D/C#                      G                           
e|-------------5-----------|-------------5-----------|-------------5-----------|-------------5-----------|
B|----3------------3-------|----3------------3-------|----3------------3-------|----3------------3-------|
G|--------2-------------2--|--------2-------------2--|--------2-------------2--|--------2-------------2--|
D|-0-----------------------|-------------------------|-5-----------------------|-5-----------------------|
A|-------------------------|-4-----------------------|-------------------------|-------------------------|
E|-------------------------|-------------------------|-------------------------|-------------------------|x2
     Me ollaan ne joilla     syytä on    huokailla       Joill'    on  muistoja    kipua     kaipuuta
     Me ollaan ne jotka      luopuivat   paljosta        Ollaan ne   jotka       kosketti     onnea

(Guitar 2)
   1  &  2  &  3  &  4  &  | 1  &  2  &  3  &  4  &  | 1  &  2  &  3  &  4  &  | 1  &  2  &  3  &  4  &  |
e|-------------------------|-------------------------|-------------------------|-------------------------|
B|-------------------------|-------------------------|-------------------------|-------------------------|
G|-7-----------------------|-6-----------7----/9-----|-7-----------------------|-7-----------------------|
D|-7-----------------------|-7-----------7-----------|-------------------------|-5-----------------------|
A|-------------------------|-------------------------|-------------------------|-------------------------|
E|-------------------------|-------------------------|-------------------------|-------------------------|x2


[Chorus] (Guitar 2 plays the chords)
   1  &  2  &  3  &  4  &  | 1  &  2  &  3  &  4  &  | 1  &  2  &  3  &  4  &  | 1  &  2  &  3  &  4  &  |
   Em                        A                         Em                        A
e|----0--------2---3----0--|-------------------------|----0--------2---3----0--|----------------------0--|
B|--------0----------------|----2--------2---3---/5--|--------0-------------0--|----2--------2---3-------|
G|-------------------------|--------2----------------|-------------------------|--------2----------------|
D|-------------------------|-------------------------|-------------------------|-------------------------|
A|-------------------------|-0-----------------------|-------------------------|-0-----------------------|
E|-0-----------------------|-------------------------|-0-----------------------|-------------------------|
     Me ollaan ne joita      tuuli       heitteli        Me ollaan ne  jotka     yö     kerran peitteli  


[Interlude]
(Guitar 1)
   1  &  2  &  3  &  4  &  | 1  &  2  &  3  &  4  &  | 1  &  2  &  3  &  4  &  | 1  &  2  &  3  &  4  &  |
   D                         Dsus4                     D                         Dsus2
e|-------------------------|-------------------------|-------------------------|-------------------------|
B|-------------3-----------|-------------3-----------|-------------3-----------|-------------3-----------|
G|----------2------2-------|----------2------2-------|----------2------2-------|----------2------2-------|
D|-----4----------------4--|-----5----------------5--|-----4----------------5--|-----2----------------2--|
A|-5-----------------------|-5-----------------------|-5-----------------------|-5-----------------------|
E|-------------------------|-------------------------|-------------------------|-------------------------|
   Ne
(Guitar 2)
   1  &  2  &  3  &  4  &  | 1  &  2  &  3  &  4  &  | 1  &  2  &  3  &  4  &  | 1  &  2  &  3  &  4  &  |
e|-------------10----------|-------------10----------|-------------10----------|-------------10----------|
B|----------10-----10------|----------10-----10------|----------10-----10------|----------10-----10------|
G|-----11---------------11-|-----12---------------12-|-----11---------------11-|-----9----------------9--|
D|-12----------------------|-12----------------------|-12----------------------|-12----------------------|
A|-------------------------|-------------------------|-------------------------|-------------------------|
E|-------------------------|-------------------------|-------------------------|-------------------------|


[Bridge]
(Guitar 1)
   1  &  2  &  3  &  4  &  | 1  &  2  &  3  &  4  &  | 1  &  2  &  3  &  4  &  | 1  &  2  &  3  &  4  &  |
   G                         A                         G                         Bm          A
e|----------5--------------|----------5--------------|----------5--------------|-------------------------|
B|-------3-----------------|-------3-----------------|-------3-----------------|-3-----------2-----------|
G|----2--------------------|----2--------------------|----2--------------------|-4-----------2-----------|
D|-5-----------------------|-------------------------|-5-----------------------|-4-----------2-----------|
A|-------------------------|-0-----------------------|-------------------------|-2-----------0-----------|
E|-------------------------|-------------------------|-------------------------|-------------------------|
        Joille    kaupunki   hiljeni   merkiksi              Joille    kaukana   pilvissä    välähti     

(Guitar 2)
   1  &  2  &  3  &  4  &  | 1  &  2  &  3  &  4  &  | 1  &  2  &  3  &  4  &  | 1  &  2  &  3  &  4  &  |
e|-------------------------|-------------------------|-------------------------|-7-----------5-----------|
B|-------------------------|-14----------------------|-12----------------------|-7-----------5-----------|
G|(12)---------------------|-14----------------------|-12----------------------|-7-----------6-----------|
D|(12)---------------------|-------------------------|-------------------------|-9-----------7-----------|
A|-------------------------|-------------------------|-------------------------|-9-----------7-----------|
E|-------------------------|-------------------------|-------------------------|-7-----------5-----------|


(Guitar 1)
   1  &  2  &  3  &  4  &  | 1  &  2  &  3  &  4  &  | 1  &  2  &  3  &  4  &  | 1  &  2  &  3  &  4  &  |
   G                         D                         A           Bm            G           A
e|----------5--------------|----------5--------------|-------------------------|-------------------------|
B|-------3-----------------|-------3-----------------|-2-----------3-----------|-------------------------|
G|----2--------------------|----2--------------------|-2-----------4-----------|-4-----------6-----------|
D|-5-----------------------|-0-----------------------|-2-----------4-----------|-5-----------7-----------|
A|-------------------------|-------------------------|-0-----------2-----------|-5-----------7-----------|
E|-------------------------|-------------------------|-------------------------|-3-----------5-----------|
         Nähkää   toisenne   uskokaa    todeksi        se  minkä   näätte   ja   löytäkää    toisenne  

(Guitar 2)
   1  &  2  &  3  &  4  &  | 1  &  2  &  3  &  4  &  | 1  &  2  &  3  &  4  &  | 1  &  2  &  3  &  4  &  |
e|-------------------------|-------------------------|-------------------------|-------------------------|
B|-8-----------8-----------|-------------7-----------|-------------------------|-------------------------|
G|-7----------------7------|------------------7------|-------------------------|-4-----------6-----------|
D|-9--------------------9--|-7-----------------------|-7-----------9-----------|-------------------------|
A|-10----------------------|-5-----------------------|-------------------------|-5-----------7-----------|
E|-------------------------|-------------------------|-5-----------7-----------|-3-----------5-----------|


[Solo]
(Guitar 1)
   1  &  2  &  3  &  4  &  | 1  &  2  &  3  &  4  &   |   1  &  2  &  3  &  4  &  | 1  &  2  &  3  &  4  &  |
   Dsus2                     Dsus2/C#                     G                   
e|-------------------------|--------------------------|---------------------------|-------------------------|
B|-------------------------|--------------------------|---------------------------|-------------------------|
G|-------------------------|--------------------------|---------------------------|-------------------------|
D|-4---------------2h4-----|-------------------4b5r4p2|h4/5-------------------\\\-|----------------------4b5|
A|-------------------------|--------------------------|---------------------------|-------------------------|
E|-------------------------|--------------------------|---------------------------|-------------------------|
   Nyt  

(Guitar 2)
   1  &  2  &  3  &  4  &  | 1  &  2  &  3  &  4  &   |   1  &  2  &  3  &  4  &  | 1  &  2  &  3  &  4  &  |
e|-------------0-----------|-------------0------------|---------------3-----------|-------------3-----------|
B|----------3--------------|----------3---------------|------------3--------------|----------3--------------|
G|-----2-------------------|-----2--------------------|-------0-------------------|-----0-------------------|
D|-0-----------------------|--------------------------|---5-----------------------|-5-----------------------|
A|-------------------------|-4------------------------|---------------------------|-------------------------|
E|-------------------------|--------------------------|---------------------------|-------------------------|

(Guitar 1)
   1  &  2  &  3  &  4  &  | 1  &  2  &  3  &  4  &   |   1  &  2  &  3  &  4  &  | 1  &  2  &  3  &  4  &  |
   Dsus2                     Dsus2/C#                     G                   
e|-------------------------|--------------------------|---------------------------|-------------------------|
B|-------------------------|--------------------------|---------------------------|-------------------------|
G|-------------------------|--------------------------|---------------------------|-------------------------|
D|r4-----------------------|-\-\-\-\-----------4b5r4p2|h4/5----------------\\-----|-------------------------|
A|-------------------------|--------------------------|---------------------------|-------------------------|
E|-------------------------|--------------------------|------------------------3-3|-3--//--//--//--//-------|

(Guitar 2)
   1  &  2  &  3  &  4  &  | 1  &  2  &  3  &  4  &   |   1  &  2  &  3  &  4  &  | 1  &  2  &  3  &  4  &  |
e|-------------0-----------|-------------0------------|---------------3-----------|-------------3-----------|
B|----------3--------------|----------3---------------|------------3--------------|----------3--------------|
G|-----2-------------------|-----2--------------------|-------0-------------------|-----0-------------------|
D|-0-----------------------|--------------------------|---5-----------------------|-5-----------------------|
A|-------------------------|-4------------------------|---------------------------|-------------------------|
E|-------------------------|--------------------------|---------------------------|-------------------------|

(Guitar 1)
   1  &  2  &  3  &  4  &  | 1  &  2  &  3  &    4  &  | 1  &  2  &  3  &  4  &  | 1  &  2  &  3  &  4  &  |
   Em                        A                           Em                        A
e|-------------------------|---------------------------|-------------------------|-------------------------|
B|-------------------------|---------------------------|-------------------------|-------------------------|
G|------------------9--/11-|-9-------------------------|-----------------9---/11-|-9---11--/12-11--12--\9--|
D|---------/9--12----------|------------------12\9---p7|-9-------/9--12----------|-------------------------|
A|-------------------------|---------------------------|-------------------------|-------------------------|
E|-------------------------|---------------------------|-------------------------|-------------------------|

(Guitar 2)
   1  &  2  &  3  &  4  &  | 1  &  2  &  3  &    4  &  | 1  &  2  &  3  &  4  &  | 1  &  2  &  3  &  4  &  |
e|-7-----------------------|-5-------------------------|-7-----------------------|-5-----------------------|
B|-8-----------------------|-5-------------------------|-8-----------------------|-5-----------------------|
G|-9-----------------------|-6-------------------------|-9-----------------------|-6-----------------------|
D|-9-----------------------|-7-------------------------|-9-----------------------|-7-----------------------|
A|-7-----------------------|-7-------------------------|-7-----------------------|-7-----------------------|
E|-------------------------|-5-------------------------|-------------------------|-5-----------------------|

(Guitar 1)
   1  &  2  &  3  &  4  &  | 1  &  2  &  3  &  4  &   |      |
   D                         Dsus4
e|-------------------------|-5---b-------10-----------|------|
B|-------------------------|-5---b----------10--------|------|
G|-7---\\-\\---------------|------------------/11-\9\7|/9----|
D|-------------------------|--------------------------|------|
A|-------------------------|--------------------------|------|
E|-------------------------|--------------------------|------|

(Guitar 2)
   1  &  2  &  3  &  4  &  | 1  &  2  &  3  &  4  &  |
e|-------------10----------|-------------10----------|
B|----------10-----10------|----------10-----10------|
G|-----11---------------11-|-----12---------------12-|
D|-12----------------------|-12----------------------|
A|-------------------------|-------------------------|
E|-------------------------|-------------------------|

[Chorus] (Guitar 2 plays the chords)
   1  &  2  &  3  &  4  &  | 1  &  2  &  3  &  4  &  | 1  &  2  &  3  &  4  &  | 1  &  2  &  3  &  4  &  |
   Em                        A                         Em                        A
e|----0--------2---3----0--|-------------------------|----0--------2---3----0--|-------------------------|
B|--------0----------------|----2--------2---3---/5--|--------0-------------0--|----2--------2-----------|
G|-------------------------|--------2----------------|-------------------------|--------2----------------|
D|-------------------------|-------------------------|-------------------------|-------------------------|
A|-------------------------|-0-----------------------|-------------------------|-0--------------0--2--4--|
E|-0-----------------------|-------------------------|-0-----------------------|-------------------------|
     Me ollaan ne joita      tuuli       heitteli        Me ollaan ne  jotka     yö     kerran peitteli  


[Interlude]
(Guitar 1)
   1  &  2  &  3  &  4  &  | 1  &  2  &  3  &  4  &  |
e|-------------------------|-------------------------|
B|----3--------2-----------|-------------------------|
G|--------4--------2----4--|-------2--------0--------|
D|-0-----------------------|--5--------4--------0----|
A|-------------------------|-------------------------|
E|-------------------------|-------------------------|
   Ne

(Guitar 2) 
   1  &  2  &  3  &  4  &  | 1  &  2  &  3  &  4  &  | 
e|----10-------9--------7--|-------5--------3--------|
B|--------12-------10------|--8--------7--------3----|
G|-------------------------|-------------------------|
D|-------------------------|-------------------------|
A|-------------------------|-------------------------|
E|-------------------------|-------------------------|


[Chorus] (Guitar 2 plays the chords)
   1  &  2  &  3  &  4  &  | 1  &  2  &  3  &  4  &  | 1  &  2  &  3  &  4  &  | 1  &  2  &  3  &  4  &  |
   Em                        A                         Em                        A
e|----0--------2---3----0--|-------------------------|----0--------2---3----0--|-------------5-----------|
B|--------0----------------|----2--------2---3---/5--|--------0-------------0--|----2------------2-------|
G|-------------------------|--------2----------------|-------------------------|--------2-------------2--|
D|-------------------------|-------------------------|-------------------------|-------------------------|
A|-------------------------|-0-----------------------|-------------------------|-0-----------------------|
E|-0-----------------------|-------------------------|-0-----------------------|-------------------------|
     Me ollaan ne joita      tuuli       heitteli        Me ollaan ne  jotka     yö     kerran peitteli  


[Chorus] (Guitar 2 plays the chords)
   1  &  2  &  3  &  4  &  | 1  &  2  &  3  &  4  &  |
   Em                        A                        
e|----0--------2---3----0--|-------------------------|
B|--------0----------------|-2-----------------------|
G|-------------------------|-2-----------------------|
D|-------------------------|-2-----------------------|
A|-------------------------|-0--------------0--2--4--|
E|-0-----------------------|-------------------------|
     Me ollaan ne joille     kaupunki  hiljeni    


[Outro]
(Guitar 1)
   1  &  2  &  3  &  4  &  | 1  &  2  &  3  &  4  &  | 1  &  2  &  3  &  4  &  | 1  &  2  &  3  &  4  &  |  
e|-------------------------|-------------------------|-------------------------|-------------------------|
B|----3--------2-----------|-------------------------|----3--------2-----------|-------------------------|
G|--------4--------2----4--|-------2--------0--------|--------4--------2----4--|-------2--------0--------|
D|-0-----------------------|--5--------4--------2----|-0-----------------------|--5--------4--------2----|
A|-------------------------|-------------------------|-------------------------|-------------------------|
E|-------------------------|-------------------------|-------------------------|-------------------------|
   Ne                                         Ollaan   ne

(Guitar 2)
   1  &  2  &  3  &  4  &  | 1  &  2  &  3  &  4  &  | 1  &  2  &  3  &  4  &  | 1  &  2  &  3  &  4  &  |  
e|----10-------9--------7--|-------5--------3--------|----10-------9--------7--|-------5--------3--------|
B|--------12-------10------|--8--------7--------5----|--------12-------10------|--8--------7--------5----|
G|-------------------------|-------------------------|-------------------------|-------------------------|
D|-------------------------|-------------------------|-------------------------|-------------------------|
A|-------------------------|-------------------------|-------------------------|-------------------------|
E|-------------------------|-------------------------|-------------------------|-------------------------|

End on D


************************************
| ()  Ghost note
| h   Hammer-on
| p   Pull-off
| r   Release
| b   Bend
| /   Slide up
| \   Slide down

************************************

            
            
Suggest correction
Creating personal tab
Creating personal tab
You can edit any tab online and save it as your Personal.

You can edit, replace or remove any tab part or add personal notes – all changes will be seen only by you.

Personal tabs can be accessed anytime from any device, even offline.
Learn more »
Give kudos to tab author, rate the tab!
1 2 3 4 5
comments
print report bad tab
guest
You may want to rate the tab now too:
select rating
Wanna post a correction for this tab? Suggest correction