Oops, an error
Loading. Please wait.

Ehu Girl Tab

version 2
version 2

Whole song

6,575 views 15 this week
no commentswrite comment
1 2 3 4 5
please rate
add to favorites
launch autoscroll
font size
0
reset
how to read this tab
guitar tuner
Autoscroll
slow
fast
+/-
esc
set tempo
stop
Help us to improve Ultimate-Guitar.com Take our survey!
×
Author
Difficulty
Tawhito 61
novice
This is my first tab ever, so I hope you like it...



 INTRO

  Cmaj       Fmaj            Gmaj
e|-0---0---0-1---------------3-------------------------|
B|-1---1-3-------3/5-3h5p3\1-3---3h5p3\1---------------|
G|-0---0---------------------4-------------------------|
D|-2---2---------------------5-------------------------|
A|-3---3---------------------5-------------------------|
E|-x---x---------------------3-------------------------|

  Cmaj       Fmaj          Gmaj      Gmaj
e|-0---0---0-1---------3/5-3-----3/5-3-------5---------|
B|-1---1-3-------3/5-------3--5------3---5-------------|
G|-0---0-------------5-----4----5----4-----5-----------|
D|-2---2-------------------5---------5-----------------|
A|-3---3-------------------5---------5-----------------|
E|-x---x-------------------3---------3-----------------|

  Amin       Gmaj
e|-5-5-5-5---3----|
B|-5-5-5-5---3----|
G|-5-5-5-5---4----| X2
D|-7-7-7-7---5----|
A|-7-7-7-7---5----|
E|-5-5-5-5---3----|
   
 VERSE

  Cmaj             Fmaj    Gmaj
e|-3---3---3---3---1---1---3---3----|
B|-5---5---5---5---1---1---3---3----|
G|-5---5---5---5---2---2---4---4----| X2
D|-5---5---5---5---3---3---5---5----|
A|-3---3---3---3---3---3---5---5----|
E|-x---x---x---x---1---1---3---3----|

  Dmin     Gmaj    Amin            Dmin            Gmaj
e|-3---3---3---3---5---5---5---5---5---5---5---5---3------3-----|
B|-4---4---3---3---5---5---5---5---6---6---6---6---3------3-----|
G|-5---5---4---4---5---5---5---5---7---7---7---7---4------4-----|
D|-5---5---5---5---7---7---7---7---7---7---7---7---5------3-----|
A|-3---3---5---5---7---7---7---7---5---5---5---5---5------5-----|
E|-x---x---3---3---5---5---5---5---x---x---x---x---3------3-----


CHORUS

  Cmaj     Fmaj    Gmaj
e|-3---3---1---1---3---3---3---3---|
B|-5---5---1---1---3---3---3---3---|
G|-5---5---2---2---4---4---4---4---| X4
D|-5---5---3---3---5---5---5---5---|
A|-3---3---3---3---5---5---5---5---|
E|-x---x---1---1---3---3---3---3---|

Same as 2nd part of INTRO
 
 Cmaj        Fmaj          Gmaj      Gmaj
e|-0---0---0-1---------3/5-3-----3/5-3-------5---------|
B|-1---1-3-------3/5-------3--5------3---5-------------|
G|-0---0-------------5-----4----5----4-----5-----------|
D|-2---2-------------------5---------5-----------------|
A|-3---3-------------------5---------5-----------------|
E|-x---x-------------------3---------3-----------------|

 Amin       Gmaj
e|-5-5-5-5---3----|
B|-5-5-5-5---3----|
G|-5-5-5-5---4----|
D|-7-7-7-7---5----|
A|-7-7-7-7---5----|
E|-5-5-5-5---3----|

   VERSE

  Cmaj             Fmaj    Gmaj
e|-3---3---3---3---1---1---3---3----|
B|-5---5---5---5---1---1---3---3----|
G|-5---5---5---5---2---2---4---4----| X2
D|-5---5---5---5---3---3---5---5----|
A|-3---3---3---3---3---3---5---5----|
E|-x---x---x---x---1---1---3---3----|

  Dmin     Gmaj    Amin            Dmin            Gmaj
e|-3---3---3---3---5---5---5---5---5---5---5---5---3------3-----|
B|-4---4---3---3---5---5---5---5---6---6---6---6---3------3-----|
G|-5---5---4---4---5---5---5---5---7---7---7---7---4------4-----|
D|-5---5---5---5---7---7---7---7---7---7---7---7---5------3-----|
A|-3---3---5---5---7---7---7---7---5---5---5---5---5------5-----|
E|-x---x---3---3---5---5---5---5---x---x---x---x---3------3-----|








CHORUS

  Cmaj     Fmaj    Gmaj
e|-3---3---1---1---3---3---3---3---|
B|-5---5---1---1---3---3---3---3---|
G|-5---5---2---2---4---4---4---4---| X4
D|-5---5---3---3---5---5---5---5---|
A|-3---3---3---3---5---5---5---5---|
E|-x---x---1---1---3---3---3---3---|







Same as INTRO
 
Cmaj         Fmaj            Gmaj
e|-0---0---0-1---------------3-------------------------|
B|-1---1-3-------3/5-3h5p3\1-3---3h5p3\1---------------|
G|-0---0---------------------4-------------------------|
D|-2---2---------------------5-------------------------|
A|-3---3---------------------5-------------------------|
E|-x---x---------------------3-------------------------|

  Cmaj       Fmaj          Gmaj      Emaj7
e|-0---0---0-1---------3/5-3-----3/5-3-------5---------|
B|-1---1-3-------3/5-------3--5----------5-------------|
G|-0---0-------------5-----4----5----------5-----------|
D|-2---2-------------------5---------------------------|
A|-3---3-------------------5---------------------------|
E|-x---x-------------------3---------------------------|

  Amin       Gmaj
e|-5-5-5-5---3----|
B|-5-5-5-5---3----|
G|-5-5-5-5---4----| X2
D|-7-7-7-7---5----|
A|-7-7-7-7---5----|
E|-5-5-5-5---3----|


BRIDGE

  Cmaj     Dmin            
e|-3---3---5---5----|
B|-5---5---6---6----|
G|-5---5---7---7----| X3
D|-5---5---7---7----|
A|-3---3---5---5----|
E|-x---x---x---x----|

  Fmaj     Gmaj
e|-1-------3-------|
B|-1-------3-------|
G|-2-------4-------|
D|-3-------5-------|
A|-3-------5-------|
E|-1-------3-------|

CHORUS

  Cmaj     Fmaj    Gmaj
e|-3---3---1---1---3---3---3---3---|
B|-5---5---1---1---3---3---3---3---|
G|-5---5---2---2---4---4---4---4---| Till song finishes...
D|-5---5---3---3---5---5---5---5---|
A|-3---3---3---3---5---5---5---5---|
E|-x---x---1---1---3---3---3---3---|




NZ Kiwis-World Champions



Tabbed by; "Peter Maaka"

This is a video of me playing this tab (slightly different though)

http://youtu.be/e-ctqrOefzU
Suggest correction new What's this?
You can suggest a correction to this tab. Community and Mods will review your correction and vote to approve or reject it.
comments
We did not receive enough feedback on this tab! Please rate:
print report bad tab
1 2 3 4 5
guest
You may want to rate the tab now too:
select rating
Please do not post tabs as comments. Select "correction" instead!