Oops, an error
Loading. Please wait.

Victory Lane Bass Tab

177 views 1 this week
no commentswrite comment
1 2 3 4 5
please rate
add to favorites
launch autoscroll
font size
0
reset
guitar tuner
Tab Pro tools
  • play this tab
  • loop segment
  • change instrument
  • show fretboard
  • metronome
Autoscroll
slow
fast
+/-
esc
set tempo
stop
Contributor
Difficulty
intermediate
-------------------------------------------------------------------------------
                              Victory Lane - Komeda
-------------------------------------------------------------------------------

Tabbed by: TBone142
e-mail: tbone142@freemail.hu

Tuning: standard EADG

Intro:
           P                             P
G|---------7-----------------------------7/9---------------------------------|
D|-9---7-9------9---7-9----------9---7-9--------9---7-9----------------------|
A|---9------------9-----9-7-5------9--------------9-----9-7-5----------------|
E|---------------------------------------------------------------------------|

           P                             P              P P P
G|---------7-----------------------------7/9------------9-9-7----------------|
D|-9---7-9------9---7-9----------9---7-9--------9---7-9----------------------|
A|---9------------9-----9-7-5------9--------------9--------------------------|
E|---------------------------------------------------------------------------|

Verse:
                                                       P
G|-----------------------------------------------------7---------------------|
D|-9--9--9---------------------9--9--9---------------------------------------|
A|---------9--10--10--7--7-------------9--10--10--7--7-----------------------|
E|-------------------------10------------------------------------------------|

G|---------------------------------------------------------------------------|
D|-9--9--9---------------------9--9--9---------------------------------------|
A|---------9--10--10--7--7-------------9--10--10--7--7-----------------------|
E|-------------------------10--------------------------10--------------------|

Bridge:
G|--------------------------------|
D|--------------------------------|
A|--------------------------------|
E|-10--10--109-9-9--8--8--87-7-7--|

           P                             P
G|---------7-----------------------------7/9---------------------------------|
D|-9---7-9------9---7-9----------9---7-9--------9---7-9----------------------|
A|---9------------9-----9-7-5------9--------------9-----9-7-5----------------|
E|---------------------------------------------------------------------------|

G|----------------------------------7---7---7---7---7---9---11----14---------|
D|---------------------------------------------------------------------------|
A|-5--5--54-4-4--3--3--32-2-2-----5---5---5---5---5---7---9----12------------|
E|---------------------------------------------------------------------------|

Chorus:
G|---------------------------------------------------------------------------|
D|-8--8----------------------8--8-------------10------12---------------------|
A|------8--8--10--10--------------8--8--10-----------------------------------|
E|-------------------10--10-----------------8----8-10----10------------------|

G|---------------------------------------------------------------------------|
D|-8--8----------------------8--8-------------10----12----12----12-----------|
A|------8--8--10--10--------------8--8--10-----------------------------------|
E|-------------------10--10-----------------8----10----10----10--------------|

Bridge:
G|---------------------------------------------------------------------------|
D|-9-9-9-9-9-9-9-9-----------------------------------------------------------|
A|-----------------10-10-10-10-10-10-10-10-7-7-7-7-7-7-7-7-7-7-7-7-7-7-7-7---|
E|---------------------------------------------------------------------------|

G|---------------------------------------------------------------------------|
D|-9----9---9----------------------------6---6---6---7---7---7---7-----------|
A|---------------10--10-10-10-10-10-10-7---7---7---7---7---7---7-------------|
E|----7---7---7--------------------------------------------------------------|

G|---------------------------------------------------------------------------|
D|-------------------------6---6---6---6---7---7---7---7----8---8---8---8----|
A|-10--10-10-10-10-10-10-7---7---7---7---7---7---7---7----9---9---9---9------|
E|---------------------------------------------------------------------------|

           P                             P
G|---------7-----------------------------7/9---------------------------------|
D|-9---7-9------9---7-9----------9---7-9--------9---7-9----------------------|
A|---9------------9-----9-7-5------9--------------9-----9-7-5----------------|
E|---------------------------------------------------------------------------|

           P                             P              P P P
G|---------7-----------------------------7/9------------9-9-7----------------|
D|-9---7-9------9---7-9----------9---7-9--------9---7-9----------------------|
A|---9------------9-----9-7-5------9--------------9--------------------------|
E|---------------------------------------------------------------------------|

Verse:
                                                       P
G|-----------------------------------------------------7---------------------|
D|-9--9--9---------------------9--9--9---------------------------------------|
A|---------9--10--10--7--7-------------9--10--10--7--7-----------------------|
E|-------------------------10------------------------------------------------|

G|---------------------------------------------------------------------------|
D|-9--9--9---------------------9--9--9---------------------------------------|
A|---------9--10--10--7--7-------------9--10--10--7--7-----------------------|
E|-------------------------10--------------------------10--------------------|

Bridge:
G|--------------------------------|
D|--------------------------------|
A|--------------------------------|
E|-10--10--109-9-9--8--8--87-7-7--|

           P                             P
G|---------7-----------------------------7/9---------------------------------|
D|-9---7-9------9---7-9----------9---7-9--------9---7-9----------------------|
A|---9------------9-----9-7-5------9--------------9-----9-7-5----------------|
E|---------------------------------------------------------------------------|

G|----------------------------------7---7---7---7---7---9---11----14---------|
D|---------------------------------------------------------------------------|
A|-5--5--54-4-4--3--3--32-2-2-----5---5---5---5---5---7---9----12------------|
E|---------------------------------------------------------------------------|

Chorus:
G|---------------------------------------------------------------------------|
D|-8--8----------------------8--8-------------10------12---------------------|
A|------8--8--10--10--------------8--8--10-----------------------------------|
E|-------------------10--10-----------------8----8-10----10------------------|

G|---------------------------------------------------------------------------|
D|-8--8----------------------8--8-------------10----12----12----12-----------|
A|------8--8--10--10--------------8--8--10-----------------------------------|
E|-------------------10--10-----------------8----10----10----10--------------|

Bridge:
G|---------------------------------------------------------------------------|
D|-9-9-9-9-9-9-9-9-----------------------------------------------------------|
A|-----------------10-10-10-10-10-10-10-10-7-7-7-7-7-7-7-7-7-7-7-7-7-7-7-7---|
E|---------------------------------------------------------------------------|

G|---------------------------------------------------------------------------|
D|-9----9---9----------------------------6---6---6---7---7---7---7-----------|
A|---------------10--10-10-10-10-10-10-7---7---7---7---7---7---7-------------|
E|----7---7---7--------------------------------------------------------------|

G|---------------------------------------------------------------------------|
D|-------------------------6---6---6---6---7---7---7---7---------------------|
A|-10--10-10-10-10-10-10-7---7---7---7---7---7---7---7-----------------------|
E|---------------------------------------------------------------------------|

G|---------------------------------------------------------------------------|
D|-------------------------6---6---6---6---7---7---7---7---------------------|
A|-10--10-10-10-10-10-10-7---7---7---7---7---7---7---7-----------------------|
E|---------------------------------------------------------------------------|

G|---------------------------------------------------------------------------|
D|-------------------------6---6---6---6---7---7---7---7----8---8---8---8----|
A|-10--10-10-10-10-10-10-7---7---7---7---7---7---7---7----9---9---9---9------|
E|---------------------------------------------------------------------------|

Outro:
G|-14--14\13--13--11\9--9\8-6------------------------------------------------|
D|-----------------------------7--4-6-7--7--6--4-----------------------------|
A|-------------------------------------------------7--6--4-------------------|
E|---------------------------------------------------------------------------|

G|-----------------|
D|---9---9---9---9-|
A|-----------------| - repeat till the end
E|-7---7---7---7---|


===============================================================================
Notes:

I see this band is not in the database, but I couldn't find an official site of them (I
think they split up), but here's the Wikipedia link for the band: 
http://en.wikipedia.org/wiki/Komeda

If You have problems with this tab, write Me a mail what's wrong with it
instead of giving it a bad rating! It'd be better for everyone! Thx!


| P  pick
| /  slide up
| \  slide down
| h  hammer-on
| p  pull-off
| ~  vibrato
| +  harmonic
| x  Mute note
===============================================================================
comments
We did not receive enough feedback on this tab! Please rate:
print report bad tab
1 2 3 4 5
I want to post or [tab]
guest
You may want to rate the tab now too:
select rating
Please do not post tabs as comments. Select "correction" instead!