Oops, an error
Loading. Please wait.

R.a.s.h. tab

33 views 1 this week
no commentswrite comment
1 2 3 4 5
3 more votes to show rating
add to favorites
×
Save as Personal and add changes to this tab that will be seen only by you. Learn more ›
×
You can save this tab as Personal to edit and correct it or add notes. All changes will be seen only by you. Learn more »
launch autoscroll
font size
0
reset
how to read this tab
guitar tuner
edit
Autoscroll
slow
fast
+/-
esc
set tempo
stop
bueno esta es mi primera transcripción
aver como sale
el riff es algo asi, muy sencillo
|-----------------------------------------------------------|
|-----------------------------------------------------------|
|-----------------------------------------------------------|
|--------------9-9-9-9-9------------10-10-10-10-10----------|
|7-7-9-10-11-12---------7-7-9-10-11-12----------------------|
|-----------------------------------------------------------|

|-----------------------------------------------------------|
|-----------------------------------------------------------|
|-----------------------------------------------------------|
|-------------12-12-12-12-12--------------------------------|
|9-9-11-12-13------------------10-10-10-10-9-10-9-7---------|
|-----------------------------------------------------------|

  E                               C
El (///)crew dio la iniciacion de un ejercito urbano
     C
que se expande por el mundo.

   D
Jovenes rapados diambulando en grandes ordas
  G-F#m-G-F#m
siempre contra las injusticias.
  E           C            D        G-F#m-G-F#m
Elcombate, los sucios , fascistas!!!

 E                           C
Skinheads socialistas, y tambien anarquistas
  D           G-F#m-G-F#m
desde el 93, union acción e informacion.
 E
Todo empezo en las Estados Unidos
  C
exactamente en Nueva York.
 D                        G-F#m-G-F#m
Cuando la mediocridad tenia que acabarse.


en esta parte se repite el riff y viene la parte que dice:

LIBERTAD, IGUALDAD, SOLIDARIDAD SKINHEADS ROJOS Y ANARQUISTAS!!!

LIBERTAD, IGUALDAD, SOLIDARIDAD JOVENES ROJOS Y ANARQUISTAS!!!

esta es la esctructura de una exelente cancion
LIBERTAD PARA FARO!!! (//) R.A.S.H. Morelia crew (///)
Suggest correction
Creating personal tab
Creating personal tab
You can edit any tab online and save it as your Personal.

You can edit, replace or remove any tab part or add personal notes – all changes will be seen only by you.

Personal tabs can be accessed anytime from any device, even offline.
Learn more »
Give kudos to tab author, rate the tab!
1 2 3 4 5
comments
print report bad tab
guest
Wanna post a correction for this tab? Suggest correction