Oops, an error
Loading. Please wait.

Beyond Big Boss Escape Tab

10 views 1 this week
no commentswrite comment
1 2 3 4 5
3 more votes to show rating
add to favorites
launch autoscroll
font size
0
reset
how to read this tab
guitar tuner
Autoscroll
slow
fast
+/-
esc
set tempo
stop
Help us to improve Ultimate-Guitar.com Take our survey!
×
Author
Song title: Beyond Big Boss/Escape
Artist: Konami Kukeiha Club
Game: Metal Gear (MSX)

Part 1
E|-8-8-8-8-9-9-9-9---------12---------12---------12-|
B|-----------------10-12-13---10-12-13---10-12-13---|
G|--------------------------------------------------|
D|--------------------------------------------------|
A|--------------------------------------------------|
E|--------------------------------------------------|

Part 2
E|---------12---------11---------11----------11---------11---------10-|
B|-10-12-13---10-12-13---10-12-13----10-12-13---10-12-13---10-12-13---|
G|--------------------------------------------------------------------|
D|--------------------------------------------------------------------|
A|--------------------------------------------------------------------|
E|--------------------------------------------------------------------|

E|---------10---------10---------10-|
B|-10-12-13---10-12-13---10-12-13---|  
G|----------------------------------|
D|----------------------------------|
A|----------------------------------|
E|----------------------------------|


Part 3 
E|-10-9-8-7--10-9-8-7-----------10-9-8-7-|
B|--------------------11-10-9-8----------|
G|---------------------------------------|
D|---------------------------------------|
A|---------------------------------------|
E|---------------------------------------|


Part 4 
E|---------12---------12---------12----------12-|
B|—10-12-13---10-12-13---10-12-13---10-12-13----|
G|----------------------------------------------|
D|----------------------------------------------|
A|----------------------------------------------|
E|----------------------------------------------|

E|---------12---------11---------11----------11---------11---------10-|
B|-10-12-13---10-12-13---10-12-13----10-12-13---10-12-13---10-12-13---|
G|--------------------------------------------------------------------|
D|--------------------------------------------------------------------|
A|--------------------------------------------------------------------|
E|--------------------------------------------------------------------|

E|---------10---------10---------10---------------------------------------------|
B|-10-12-13---10-12-13---10-12-13----8-8-8-8--9-9-9-9--10-10-10-10--12-12-12-12-|  
G|------------------------------------------------------------------------------|
D|------------------------------------------------------------------------------|
A|------------------------------------------------------------------------------|
E|------------------------------------------------------------------------------|

Part 5
E|---15------15------15--------------------------------15-----13-12--12---|
B|-15--15-13---15-13---15-13---15-15-15-15-18-18-18-18---15-13-----13--15-|
G|------------------------------------------------------------------------|
D|------------------------------------------------------------------------|
A|------------------------------------------------------------------------|
E|------------------------------------------------------------------------|

E|------------------------------------------|
B|-13-12-13-14--15-14-15-16--17-16-17-18-19-|
G|------------------------------------------|
D|------------------------------------------|
A|------------------------------------------|
E|------------------------------------------|


Part 6
E|-15------15------15---17------17------17-----17---15------15--17---15------------|
B|---15-13---15-13---15---17-15---17-15---15------------17-------------17-15-13-15-|
G|---------------------------------------------------------------------------------|
D|---------------------------------------------------------------------------------|
A|---------------------------------------------------------------------------------|
E|---------------------------------------------------------------------------------|



Part 1A 
E|---------12---------12---------12----------12-|
B|-10-12-13---10-12-13---10-12-13----10-12-13---|
G|----------------------------------------------|
D|----------------------------------------------|
A|----------------------------------------------|
E|----------------------------------------------|

Part 2
E|----------11---------11----------11---------11---------10----------10---------10---------10-|
B|--10-12-13---10-12-13----10-12-13---10-12-13---10-12-13----10-12-13---10-12-13---10-12-13---|
G|--------------------------------------------------------------------------------------------|
D|--------------------------------------------------------------------------------------------|
A|--------------------------------------------------------------------------------------------|
E|--------------------------------------------------------------------------------------------|


Part 3
E|-10-9-8-7--10-9-8-7-----------10-9-8-7-|
B|--------------------11-10-9-8----------|
G|---------------------------------------|
D|---------------------------------------|
A|---------------------------------------|
E|---------------------------------------|


Part 4 
E|---------12---------12---------12----------12-|
B|—10-12-13---10-12-13---10-12-13---10-12-13----|
G|----------------------------------------------|
D|----------------------------------------------|
A|----------------------------------------------|
E|----------------------------------------------|

E|---------12---------11---------11----------11---------11---------10-|
B|-10-12-13---10-12-13---10-12-13----10-12-13---10-12-13---10-12-13---|
G|--------------------------------------------------------------------|
D|--------------------------------------------------------------------|
A|--------------------------------------------------------------------|
E|--------------------------------------------------------------------|

E|---------10---------10---------10---------------------------------------------|
B|-10-12-13---10-12-13---10-12-13----8-8-8-8--9-9-9-9--10-10-10-10--12-12-12-12-|  
G|------------------------------------------------------------------------------|
D|------------------------------------------------------------------------------|
A|------------------------------------------------------------------------------|
E|------------------------------------------------------------------------------|

Part 5 
E|---15------15------15--------------------------------15-----13-12--12---|
B|-15--15-13---15-13---15-13---15-15-15-15-18-18-18-18---15-13-----13--15-|
G|------------------------------------------------------------------------|
D|------------------------------------------------------------------------|
A|------------------------------------------------------------------------|
E|------------------------------------------------------------------------|

E|------------------------------------------|
B|-13-12-13-14--15-14-15-16--17-16-17-18-19-|
G|------------------------------------------|
D|------------------------------------------|
A|------------------------------------------|
E|------------------------------------------|

Part 6
E|-15------15------15---17------17------17-----17---15------15--17---15------------|
B|---15-13---15-13---15---17-15---17-15---15------------17-------------17-15-13-15-|
G|---------------------------------------------------------------------------------|
D|---------------------------------------------------------------------------------|
A|---------------------------------------------------------------------------------|
E|---------------------------------------------------------------------------------|
Suggest correction
Give kudos to tab author, rate the tab!
1 2 3 4 5
comments
print report bad tab
guest
You may want to rate the tab now too:
select rating
Wanna post a correction for this tab? Suggest correction