Oops, an error
Loading. Please wait.

Farewell Tab

10 views 1 this week
no commentswrite comment
1 2 3 4 5
3 more votes to show rating
add to favorites
launch autoscroll
font size
0
reset
how to read this tab
guitar tuner
Autoscroll
slow
fast
+/-
esc
set tempo
stop
Help us to improve Ultimate-Guitar.com Take our survey!
×
Author
Song: Farewell
Artist: Konami Kukeiha Club
Game: Metal Gear 2: Solid Snake

Guitar 1


[Part 1]

E|---------8-8-8-10-12----------10-12-15-14-12-10-|
B|-10-10-10-------------10-10-10------------------|
G|------------------------------------------------|
D|------------------------------------------------|
A|------------------------------------------------|
E|------------------------------------------------|

E|---------8-8-8-10-12----------10-12-15-14-12-17-|
B|-10-10-10-------------10-10-10------------------|
G|------------------------------------------------|
D|------------------------------------------------|
A|------------------------------------------------|
E|------------------------------------------------|

E|---------8-8-8-10-12----------10-12-15-14-12-10-|
B|-10-10-10-------------10-10-10------------------|
G|------------------------------------------------|
D|------------------------------------------------|
A|------------------------------------------------|
E|------------------------------------------------|

E|---------8-8-8-10-12----------10-12-15-14-12-|
B|-10-10-10-------------10-10-10---------------|
G|---------------------------------------------|
D|---------------------------------------------|
A|---------------------------------------------|
E|---------------------------------------------|


[Part 2]

E|---10-9----------------------------------|
B|-12----12-10-12----12--------------------|
G|----------------12---14-12-11-12-11-9-11-|
D|-----------------------------------------|
A|-----------------------------------------|
E|-----------------------------------------|

E|---10-9-----------------------------------------------|
B|-12----12-10-12--12-10---14-12----15-13---------------|
G|----------------------12------14-------15--12-11-9-11-|
D|------------------------------------------------------|
A|------------------------------------------------------|
E|------------------------------------------------------|

E|---10-9----------------------------------|
B|-12----12-10-12----12--------------------|
G|----------------12---14-12-11-12-11-9-11-|
D|-----------------------------------------|
A|-----------------------------------------|
E|-----------------------------------------|

E|---10-9-----------------------------------------------|
B|-12----12-10-12--12-10---14-12----15-13---------------|
G|----------------------12------14-------15--12-11-9-11-|
D|------------------------------------------------------|
A|------------------------------------------------------|
E|------------------------------------------------------|


[Part 3]

E|-------------------------------------------------------------------|
B|-12-10--10--12--14-12--12--14---12-10--10-12--14-12--12--15-13--13-|
G|------12------------14---------------12------------14---------15---|
D|-------------------------------------------------------------------|
A|-------------------------------------------------------------------|
E|-------------------------------------------------------------------|

E|-------------------------------------------------------------------|
B|-12-10--10--12--14-12--12--14---12-10--10-12--14-12--12--15-13--13-|
G|------12-------------14--------------12------------14---------15---|
D|-------------------------------------------------------------------|
A|-------------------------------------------------------------------|
E|-------------------------------------------------------------------|


[Part 4]

E|------9--11---------10---------11-------9--11---------11--------------------|
B|-9--12------10-12-13---11-13-14----9--12------11-13-14---10-----------------|
G|-----------------------------------------------------------12-11-12-11-9-11-|
D|----------------------------------------------------------------------------|
A|----------------------------------------------------------------------------|
E|----------------------------------------------------------------------------|

E|------9--11---------10---------11------9-11----------11-----11--|
B|-9--12------10-12-13---11-13-14----9-12------11-13-14--13-11----|
G|----------------------------------------------------------------|
D|----------------------------------------------------------------|
A|----------------------------------------------------------------|
E|----------------------------------------------------------------|


[Part 5]

E|---10-12-14-14-14-14--10-12-14-14-14-14--10-12-17-15-14-12-14-12-10-|
B|-12-----------------12-----------------12---------------------------|
G|--------------------------------------------------------------------|
D|--------------------------------------------------------------------|
A|--------------------------------------------------------------------|
E|--------------------------------------------------------------------|

E|---10-12-14-14-14-14--10-12-14-14-14-14--10-12-17-15-14-12-14-12-10-|
B|-12-----------------12-----------------12---------------------------|
G|--------------------------------------------------------------------|
D|--------------------------------------------------------------------|
A|--------------------------------------------------------------------|
E|--------------------------------------------------------------------|


[Part 6]

E|---12-14-16-16-16-16--12-14-16-16-16-16--12-14-19-17-16-14-16-14-12-|
B|-14-----------------14-----------------14---------------------------|
G|--------------------------------------------------------------------|
D|--------------------------------------------------------------------|
A|--------------------------------------------------------------------|
E|--------------------------------------------------------------------|

E|---12-14-16-16-16-16--12-14-16-16-16-16--12-14-19-17-16-14-16-14-12-|
B|-14-----------------14-----------------14---------------------------|
G|--------------------------------------------------------------------|
D|--------------------------------------------------------------------|
A|--------------------------------------------------------------------|
E|--------------------------------------------------------------------|


[Part 5]

E|---10-12-14-14-14-14--10-12-14-14-14-14--10-12-17-15-14-12-14-12-10-|
B|-12-----------------12-----------------12---------------------------|
G|--------------------------------------------------------------------|
D|--------------------------------------------------------------------|
A|--------------------------------------------------------------------|
E|--------------------------------------------------------------------|

E|---10-12-14-14-14-14--10-12-14-14-14-14--10-12-17-15-14-12-14-12-10-|
B|-12-----------------12-----------------12---------------------------|
G|--------------------------------------------------------------------|
D|--------------------------------------------------------------------|
A|--------------------------------------------------------------------|
E|--------------------------------------------------------------------|


Guitar 2


[Part 1]
E|----------------------------------------------------|
B|----------------------------------------------------|
G|----------------------------------------------------|
D|----------------------------------------------------|
A|----------------------------------------------------|
E|-5-5-5-5-5-5--5-5-5-5-5-5--3-3-3-3-3-3--3-3-3-3-3-3-|

E|----------------------------------------------------|
B|----------------------------------------------------|
G|----------------------------------------------------|
D|----------------------------------------------------|
A|----------------------------------------------------|
E|-5-5-5-5-5-5--5-5-5-5-5-5--3-3-3-3-3-3--3-3-3-3-3-3-|


[Part 2]

E|------------------------------------------------------------------------------------|
B|------------------------------------------------------------------------------------|
G|------------------------------------------------------------------------------------|
D|------------------------------------------------------------------------------------|
A|------------------------------------------------------------------------------------|
E|-5-5-5-5--5-5-5-5--5-5-5-5--5-5-3-7-5-3-5--5-5-5-5--5-5-5-5--5-5-5-5--5-5-3-7-5-3-5-|

E|------------------------------------------------------------------------------------|
B|------------------------------------------------------------------------------------|
G|------------------------------------------------------------------------------------|
D|------------------------------------------------------------------------------------|
A|------------------------------------------------------------------------------------|
E|-5-5-5-5--5-5-5-5--5-5-5-5--5-5-3-7-5-3-5--5-5-5-5--5-5-5-5--5-5-5-5--5-5-3-7-5-3-5-|

E|------------------------------------------------------------------------------------|
B|------------------------------------------------------------------------------------|
G|------------------------------------------------------------------------------------|
D|------------------------------------------------------------------------------------|
A|------------------------------------------------------------------------------------|
E|-5-5-5-5--5-5-5-5--5-5-5-5--5-5-3-7-5-3-5--5-5-5-5--5-5-5-5--5-5-5-5--5-5-3-7-5-3-5-|

E|------------------------------------------------------------------------------------|
B|------------------------------------------------------------------------------------|
G|------------------------------------------------------------------------------------|
D|------------------------------------------------------------------------------------|
A|------------------------------------------------------------------------------------|
E|-5-5-5-5--5-5-5-5--5-5-5-5--5-5-3-7-5-3-5--5-5-5-5--5-5-5-5--5-5-5-5--5-5-3-7-5-3-5-|


Break 2 measures

[Part 3]

E|------------------------------------------------------------------------|
B|------------------------------------------------------------------------|
G|------------------------------------------------------------------------|
D|------------------------------------------------------------------------|
A|------------------------------------------------------------------------|
E|-5-5-5-5--5-5-5-5--5-5-5-5--5-5-5-5--7-7-7-7--7-7-7-7--7-7-7-7--7-7-7-7-|


[Part 4]

E|-----------------------------------------------------------------|
B|-----------------------------------------------------------------|
G|-----------------------------------------------------------------|
D|-----------------------------------------------------------------|
A|-----------------------------------------------------------------|
E|-7-7-7-7-7-7---9-9-9-9-9-9--10-10-10-10-10-10--12-12-12-12-12-12-|

E|-----------------------------------------------------------------|
B|-----------------------------------------------------------------|
G|-----------------------------------------------------------------|
D|-----------------------------------------------------------------|
A|-----------------------------------------------------------------|
E|-7-7-7-7-7-7---9-9-9-9-9-9--10-10-10-10-10-10--12-12-12-12-12-12-|


[Part 5]

E|----------------------------------------------------------------------|
B|----------------------------------------------------------------------|
G|----------------------------------------------------------------------|
D|----------------------------------------------------------------------|
A|----------------------------------------------------------------------|
E|-9-9-9-9-9-9--11-11-11-11-11-11--12-12-12-12-12-12--14-14-14-14-14-14-|

E|----------------------------------------------------------------------|
B|----------------------------------------------------------------------|
G|----------------------------------------------------------------------|
D|----------------------------------------------------------------------|
A|----------------------------------------------------------------------|
E|-9-9-9-9-9-9--11-11-11-11-11-11--12-12-12-12-12-12--14-14-14-14-14-14-|


[Part 4]

E|-----------------------------------------------------------------|
B|-----------------------------------------------------------------|
G|-----------------------------------------------------------------|
D|-----------------------------------------------------------------|
A|-----------------------------------------------------------------|
E|-7-7-7-7-7-7---9-9-9-9-9-9--10-10-10-10-10-10--12-12-12-12-12-12-|

E|-----------------------------------------------------------------|
B|-----------------------------------------------------------------|
G|-----------------------------------------------------------------|
D|-----------------------------------------------------------------|
A|-----------------------------------------------------------------|
E|-7-7-7-7-7-7---9-9-9-9-9-9--10-10-10-10-10-10--12-12-12-12-12-12-|
Suggest correction
Give kudos to tab author, rate the tab!
1 2 3 4 5
comments
print report bad tab
guest
You may want to rate the tab now too:
select rating
Wanna post a correction for this tab? Suggest correction