Oops, an error
Loading. Please wait.

Return Of Fox Hounder Tab

7 views 1 this week
no commentswrite comment
1 2 3 4 5
3 more votes to show rating
add to favorites
launch autoscroll
font size
0
reset
how to read this tab
guitar tuner
Autoscroll
slow
fast
+/-
esc
set tempo
stop
Help us to improve Ultimate-Guitar.com Take our survey!
×
Author
Song: Return of Fox Hounder
Artist: Konami Kukeiha Club
Game: Metal Gear (MSX)

Guitar 1:
(Part 1)
E|-3-5-0--3-5--3-5-1--3--5--7-|
B|----------------------------|
G|----------------------------|
D|----------------------------|
A|----------------------------|
E|----------------------------|

(Part 2)
E|-5--3-5-12--10--7-8-10--8--7-8--5--3-5-12--10--7-8-10-8--7-9-|
B|-------------------------------------------------------------|
G|-------------------------------------------------------------|
D|-------------------------------------------------------------|
A|-------------------------------------------------------------|
E|-------------------------------------------------------------|

(Part 3)
E|-10--8--7--8-–10-8-10-17-10-8-10-5-10--8-7-5-1-5-3-1-1-3-5-3-1-3-5-7-8-10-|
B|--------------------------------------------------------------------------|
G|--------------------------------------------------------------------------|
D|--------------------------------------------------------------------------|
A|--------------------------------------------------------------------------|
E|--------------------------------------------------------------------------|

(Part 2)
E|-5--3-5-12-10--7-8-10-8-7-8--5-3-5-12-10--7-8-10-8-7-9-|
B|-------------------------------------------------------|
G|-------------------------------------------------------|
D|-------------------------------------------------------|
A|-------------------------------------------------------|
E|-------------------------------------------------------|

(Part 3)
E|-10--8--7--8--10-8-10-17-10-8-10-5--10-8-7-5-1-5-3-1-1-3-5-3-1-3-5-7-8-10-|
B|--------------------------------------------------------------------------|
G|--------------------------------------------------------------------------|
D|--------------------------------------------------------------------------|
A|--------------------------------------------------------------------------|
E|--------------------------------------------------------------------------|



Guitar 2:
(Part 1)
E|----------------------------|
B|----------------------------|
G|----------------------------|
D|----------------------------|
A|----------------------------|
E|-5-5-5--5-5-5--5-5-5--5-5-5-|

(Part 2)
E|------------------------------------------|
B|------------------------------------------|
G|------------------------------------------|
D|------------------------------------------|
A|------------------------------------------|
E|-5-3-1-3-5-3-1--3-1-3-5-3-5-7-5--3-5--1-3-|

(Part 3)
E|------------------------------------------------------|
B|------------------------------------------------------|
G|------------------------------------------------------|
D|------------------------------------------------------|
A|------------------------------------------------------|
E|-5-5-7-5-3-1-5-3-1-3-5--7-7-7-7-7-7-5-5-5-7-5-3-5-1-3-|

E|-------------------------------------------------|
B|-------------------------------------------------|
G|-------------------------------------------------|
D|-------------------------------------------------|
A|-------------------------------------------------|
E|-5-5-7-5-3-1-5-3-1-3-5--5-5-5-5-5-5-5--5-5-5-5-5-|

(Part 4)
E|-------------------------------------------------------------------------------|
B|-------------------------------------------------------------------------------|
G|-------------------------------------------------------------------------------|
D|-------------------------------------------------------------------------------|
A|-------------------------------------------------------------------------------|
E|-5--5-7-8-5--5-3--3-5-7-3--5-3-1--5-3-1--1-3-5-7-5-1--3-3-3-3-3-3-3-3--3-1-5-7-|

(Part 3)
E|------------------------------------------------------|
B|------------------------------------------------------|
G|------------------------------------------------------|
D|------------------------------------------------------|
A|------------------------------------------------------|
E|-5-5-7-5-3-1-5-3-1-3-5--7-7-7-7-7-7-5-5-5-7-5-3-5-1-3-|

E|-------------------------------------------------|
B|-------------------------------------------------|
G|-------------------------------------------------|
D|-------------------------------------------------|
A|-------------------------------------------------|
E|-5-5-7-5-3-1-5-3-1-3-5--5-5-5-5-5-5-5--5-5-5-5-5-|

(Part 4)
E|-------------------------------------------------------------------------------|
B|-------------------------------------------------------------------------------|
G|-------------------------------------------------------------------------------|
D|-------------------------------------------------------------------------------|
A|-------------------------------------------------------------------------------|
E|-5--5-7-8-5--5-3--3-5-7-3--5-3-1--5-3-1--1-3-5-7-5-1--3-3-3-3-3-3-3-3--3-1-5-7-|
Suggest correction
Give kudos to tab author, rate the tab!
1 2 3 4 5
comments
print report bad tab
guest
You may want to rate the tab now too:
select rating
Wanna post a correction for this tab? Suggest correction