Oops, an error
Loading. Please wait.

Theme Of Solid Snake Tab

13 views 1 this week
no commentswrite comment
1 2 3 4 5
3 more votes to show rating
add to favorites
launch autoscroll
font size
0
reset
how to read this tab
guitar tuner
Autoscroll
slow
fast
+/-
esc
set tempo
stop
Help us to improve Ultimate-Guitar.com Take our survey!
×
Author
Song: Theme of Solid Snake
Artist: Konami Kukeiha Club
Game: Metal Gear 2: Solid Snake


Guitar 1

[Part 1]

E|--------------------------------------|
B|--------------------------------------|
G|--------------------------------------|
D|--------------------------------------|
A|--------------------------------------|
E|—2-2–2-2–-2–2-2-2–-2-2–2-2-–2–2-2-2---|


[Part 2]

E|------------------------------------------------------------------------|
B|------------------------------------------------------------------------|
G|------------------------------------------------------------------------|
D|------------------------------------------------------------------------|
A|------4--0--2--4--0--2--4--2--0--2--------4--0--2--4--0--2--4--2--0--2--|
E|—2--2-------------------------------—2--2-------------------------------|


[Part 3]

E|-----------------------------------------------------------------|
B|-----------------------------------------------------------------|
G|-----------------------------------------------------------------|
D|-----------------------------------------------------------------|
A|-----------------------------------------------------------------|
E|—2-2-2-2-2-2-2-2–0-0-0-0-0-0-0-0-7-7-7-7-7-7-7-7-5-5-5-5-4-4-4-4-|

E|-----------------------------------------------------------------|
B|-----------------------------------------------------------------|
G|-----------------------------------------------------------------|
D|-----------------------------------------------------------------|
A|-----------------------------------------------------------------|
E|-2-2-2-2-2-2-2-2–0-0-0-0-0-0-0-0-7-7-7-7-7-7-7-7-5-5-5-5-7-7-7-7-|


Guitar 1:

Part 1 x8
Pause
Part 1 x6
Part 2 x6
Part 3 x1
Part 1 x4


Guitar 2

E|-----14--12--14-----14--14--12--14----------|
B|-14-------------14------------------14------|
G|--------------------------------------------|
D|--------------------------------------------|
A|--------------------------------------------|
E|--------------------------------------------|

Guitar 2:
Play for whole song except during guitar 4 part 2


Guitar 3

[Part 1]

E|---------------------------------------|
B|---------------------------------------|
G|---------------------------------------|
D|---------------------------------------|
A|---------------------------------------|
E|--5--7--9--12--11--7--5--7--9--12--14--|


[Part 2]

E|--9--9--7--4--5--7--4--9--9--7--4--5--7----7--7--5--2--3--5--2--7--7--5--2--3--5--|
B|----------------------------------------------------------------------------------|
G|----------------------------------------------------------------------------------|
D|----------------------------------------------------------------------------------|
A|----------------------------------------------------------------------------------|
E|----------------------------------------------------------------------------------|


E|—9--9--7--4--5--7--4--9--9--7--4--5--7--|
B|----------------------------------------|
G|----------------------------------------|
D|----------------------------------------|
A|----------------------------------------|
E|----------------------------------------|


[Part 3]

E|-----9--7--5--7--12--14--16--14--19--17--19--17--16--14--12--|
B|--7----------------------------------------------------------|
G|-------------------------------------------------------------|
D|-------------------------------------------------------------|
A|-------------------------------------------------------------|
E|-------------------------------------------------------------|

E|-----9--7--5--7--12--14--16--14--19--17--19--17--16--14--16--|
B|--7----------------------------------------------------------|
G|-------------------------------------------------------------|
D|-------------------------------------------------------------|
A|-------------------------------------------------------------|
E|-------------------------------------------------------------|


Guitar 4

[Part 1] (x1) Before Guitar 1 pause
[Part 2]
[Part 3]
Suggest correction
Give kudos to tab author, rate the tab!
1 2 3 4 5
comments
print report bad tab
guest
You may want to rate the tab now too:
select rating
Wanna post a correction for this tab? Suggest correction