Oops, an error
Loading. Please wait.

Come With Me Now Tab

version 1
version 1

Whole song

Interactive

Video

36,960 views 72 this week
12 commentsread comments
1 2 3 4 5
accurate
x 9
add to favorites
launch autoscroll
font size
0
reset
how to read this tab
guitar tuner
Autoscroll
slow
fast
+/-
esc
set tempo
stop
Help us to improve Ultimate-Guitar.com Take our survey!
×
Author
Difficulty
Tuning
intermediate
D A D G B E
Tabbed by: Joshua Garcia (joshuag523@aol.com)

Tabs for the song: Come With Me Now by Kongos
Please rate and let me know if you have any corrections. Thank you.


Tuning: Drop D (D A D G B E)


Intro
Guitar 1:
E||-----------------------------------------------|
B||-----------------------------------------------|
G||--/8~---8--8--------------/8~---88-8-----------|
D||--/8~---8--8--6--6--6--x--/8~---88-8--4--4--1--| x2
A||--------------6--6--6--x--------------4--4--1--|
D||-----------------------------------------------|


E||-------------------------------------|
B||-------------------------------------|
G||-----------8------------------8------|
D||--6--6--6--8--8~-----6--6--6--8--8~--|
A||--6--6--6-----6~-----6--6--6-----6~--|
D||-------------------------------------|



Chorus
Guitar 1:
E||-----------------------------------------------|
B||-----------------------------------------------|
G||--/8~---8--8--------------/8~---88-8-----------|
D||--/8~---8--8--6--6--6--x--/8~---88-8--4--4--1--| x4
A||--/6~---6--6--6--6--6--x--/6~---66-6--4--4--1--|
D||--------------6--6--6--x--------------4--4--1--|


E||------------------|
B||------------------|
G||-----------8------|
D||--6--6--6--8--8~--|
A||--6--6--6-----6~--|
D||------------------|



Verse
Guitar 1:
E||-----------------------------------------------|
B||-----------------------------------------------|
G||-----------------------------------------------|
D||--/8~---8--8--------------/8~---88-8-----------| x2
A||--/6~---------6--6--6--x--/6~---------4--4--1--|
D||-----------------------------------------------|



Pre-Chorus
Guitar 1:
E||-----------------------------------------------|
B||-----------------------------------------------|
G||--/8~---8--8--------------/8~---88-8-----------|
D||--/8~---8--8--6--6--6--x--/8~---88-8--4--4--1--|
A||--------------6--6--6--x--------------4--4--1--|
D||-----------------------------------------------|


E||--------------------------------------------|
B||--------------------------------------------|
G||--/8~---8--8--------------/8~---88-8--------|
D||--/8~---8--8--6--6--6--x--/8~---88-8--4--4--|
A||--------------6--6--6--x--------------4--4--|
D||--------------------------------------------|



Chorus
Guitar 1:
E||-----------------------------------------------|
B||-----------------------------------------------|
G||--/8~---8--8--------------/8~---88-8-----------|
D||--/8~---8--8--6--6--6--x--/8~---88-8--4--4--1--| x2
A||--/6~---6--6--6--6--6--x--/6~---66-6--4--4--1--|
D||--------------6--6--6--x--------------4--4--1--|



Verse
Guitar 1:
E||-----------------------------------------------|
B||-----------------------------------------------|
G||-----------------------------------------------|
D||--/8~---8--8--------------/8~---88-8-----------| x2
A||--/6~---------6--6--6--x--/6~---------4--4--1--|
D||-----------------------------------------------|



Pre-Chorus
Guitar 1:
E||-----------------------------------------------|
B||-----------------------------------------------|
G||--/8~---8--8--------------/8~---88-8-----------|
D||--/8~---8--8--6--6--6--x--/8~---88-8--4--4--1--|
A||--------------6--6--6--x--------------4--4--1--|
D||-----------------------------------------------|


E||--------------------------------------|
B||--------------------------------------|
G||--/8~---8--8--------------/8~---88-8--|
D||--/8~---8--8--6--6--6--x--/8~---88-8--|
A||--------------6--6--6--x--------------|
D||--------------------------------------|



Interlude
Guitar 1:
E||--13----13----13----13----14----14----14----14----11----11----11----11---------|
B||-----12----12----12----12----12----12----12----12----11----11----11----11-11~--|
G||-------------------------------------------------------------------------------|
D||-------------------------------------------------------------------------------|
A||-------------------------------------------------------------------------------|
D||-------------------------------------------------------------------------------|


E||--13----13----13----13----14----14----14----14----16----16----16----14---------|
B||-----12----12----12----12----12----12----12----12----11----11----11----11-11~--|
G||-------------------------------------------------------------------------------|
D||-------------------------------------------------------------------------------|
A||-------------------------------------------------------------------------------|
D||-------------------------------------------------------------------------------|


E||--13----13----13----13----14----14----14----14----11----11----11----11---------|
B||-----12----12----12----12----12----12----12----12----11----11----11----11-11~--|
G||-------------------------------------------------------------------------------|
D||-------------------------------------------------------------------------------|
A||-------------------------------------------------------------------------------|
D||-------------------------------------------------------------------------------|


E||--13----13----13----13----14----14----14----14----16----16----16----14-----|
B||-----12----12----12----12----12----12----12----12----11----11----11----11--|
G||---------------------------------------------------------------------------|
D||---------------------------------------------------------------------------|
A||---------------------------------------------------------------------------|
D||---------------------------------------------------------------------------|


E||--11----11----11~--|
B||-----11----11------|
G||-------------------|
D||-------------------|
A||-------------------|
D||-------------------|


Guitar 2:
E||-----------------------------------------------|
B||-----------------------------------------------|
G||-----------------------------------------------|
D||--/8~---8--8--------------/8~---88-8-----------| x2
A||--/6~---------6--6--6--x--/6~---------4--4--1--|
D||-----------------------------------------------|


E||-----------------------------------------------|
B||-----------------------------------------------|
G||--/8~---8--8--------------/8~---88-8-----------|
D||--/8~---8--8--------------/8~---88-8-----------| x2
A||--------------6--6--6--x--------------4--4--1--|
D||-----------------------------------------------|


E||-----------------------------------------------|
B||-----------------------------------------------|
G||--/8~---8--8--------------/8~---88-8-----------|
D||--/8~---8--8--6--6--6--x--/8~---88-8--4--4--1--| x3
A||--------------6--6--6--x--------------4--4--1--|
D||-----------------------------------------------|


E||-----------------------|
B||-----------------------|
G||--/8~---8--8-----------|
D||--/8~---8--8--6--6--6--|
A||--------------6--6--6--|
D||-----------------------|


E||------------------|
B||------------------|
G||-----------8------|
D||--6--6--6--8--8~--|
A||--6--6--6-----6~--|
D||------------------|



Chorus
Guitar 1:
E||-----------------------------------------------|
B||-----------------------------------------------|
G||--/8~---8--8--------------/8~---88-8-----------|
D||--/8~---8--8--6--6--6--x--/8~---88-8--4--4--1--| x2
A||--/6~---6--6--6--6--6--x--/6~---66-6--4--4--1--|
D||--------------6--6--6--x--------------4--4--1--|



Slide Solo
Guitar 1:
E||--13b15~----13b15~----13b15~--13b15~--13b15~--15r13----11------|
B||----------------------------------------------------11----11~--|
G||---------------------------------------------------------------|
D||---------------------------------------------------------------|
A||---------------------------------------------------------------|
D||---------------------------------------------------------------|


E||--11----11---------------------------------|
B||-----11----11\7---7~----7/9/11~------7-----|
G||----------------8------------------8---8~--|
D||-------------------------------------------|
A||-------------------------------------------|
D||-------------------------------------------|


E||---------------------------------------|
B||---------16-------16-------------------|
G||--/15~------15~------15\11~---11\10\8--|
D||---------------------------------------|
A||---------------------------------------|
D||---------------------------------------|


E||-----------------------------14/16--|---------------------------------------|
B||---------16-------16---------14/16--|---------16-------16-------------------|
G||--/15~------15~------15\11~---------|--/15~------15~------15\11~---11\10\8--|
D||------------------------------------|---------------------------------------| x2
A||------------------------------------|---------------------------------------|
D||------------------------------------|---------------------------------------|


Guitar 2:
E||-----------------------------------------------|
B||-----------------------------------------------|
G||--/8~---8--8--------------/8~---88-8-----------|
D||--/8~---8--8--6--6--6--x--/8~---88-8--4--4--1--| x5
A||--/6~---6--6--6--6--6--x--/6~---66-6--4--4--1--|
D||--------------6--6--6--x--------------4--4--1--|



Bridge
Guitar 1:
E||-------------------------------------|
B||-------------------------------------|
G||-----------8------------------8------|
D||--6--6--6--8--8~-----6--6--6--8--8~--| x2
A||--6--6--6-----6~-----6--6--6-----6~--|
D||-------------------------------------|


E||-------------------------------------------------------------------|
B||-------------------------------------------------------------------|
G||-------------------------------------------------------------------|
D||-------------------------------------------------------------------|
A||--6-6-6-6-6-6-6-6-4-4-4-4-4-4-4-4----------------------------------|
D||----------------------------------6-6-6-6-6-6-6-6-8-8-8-8-8-8-8-8--|


E||-------------------------------------------------------------------|
B||-------------------------------------------------------------------|
G||-------------------------------------------------------------------|
D||-------------------------------------------------------------------|
A||--6-6-6-6-6-6-6-6-4-4-4-4-4-4-4-4----------------------------------|
D||----------------------------------9-9-9-9-9-9-9-9-8-8-8-8-8-8-8-8--|


E||------|
B||------|
G||------|
D||--8~--|
A||--8~--|
D||--8~--|



Outro
Guitar 1:
E||-----------------------------14/16--|---------------------------------------|
B||---------16-------16---------14/16--|---------16-------16-------------------|
G||--/15~------15~------15\11~---------|--/15~------15~------15\11~---11\10\8--|
D||------------------------------------|---------------------------------------| x2
A||------------------------------------|---------------------------------------|
D||------------------------------------|---------------------------------------|


E||------------------------------------|---------------------------------------|
B||---------16-------16----------------|---------16-------16-------------------|
G||--/15~------15~------15\13--13--13--|--/15~------15~------15\11~---11\10\8--|
D||------------------------------------|---------------------------------------|
A||------------------------------------|---------------------------------------|
D||------------------------------------|---------------------------------------|


Guitar 2:
E||-----------------------------------------------|
B||-----------------------------------------------|
G||--/8~---8--8--------------/8~---88-8-----------|
D||--/8~---8--8--6--6--6--x--/8~---88-8--4--4--1--| x3
A||--/6~---6--6--6--6--6--x--/6~---66-6--4--4--1--|
D||--------------6--6--6--x--------------4--4--1--|




Tablature Legend
----------------
 h   hammer-on
 p   pull-off
 b   bend
 pb  pre-bend
 r   release bend
 ~   hold / vibrato
 .   palm mute
 /   slide up
 \   slide down
 *   pinch harmonic
 '   natural harmonic
 x   mute note
 T   tap
Suggest correction
What's this?
You can suggest a correction to this tab. Community and Mods will review your correction and vote to approve or reject it.
comments
print report bad tab
12 comments total. Showing first comments.
0 reply
adambauman31 709 wrote on April 17 2014, 09:38 am, edited on December 21 2014, 04:50 pm

"Just tune each string a note higher from Standard."This is not true. Eb is not one note higher than E.

+1 reply
tangsooimp 12 wrote on April 17 2014, 12:04 pm

I feel like the best way to do this is to tune to drop D and slap a capo on the first fret. Also, there's no such thing as an E# or Fb, so F is definitely just a half step up.

0 reply
adambauman31 709 wrote on April 17 2014, 12:20 pm

Yea my bad on the f from e thing.

guest
You may want to rate the tab now too:
select rating
Please do not post tabs as comments. Select "correction" instead!