Oops, an error
Loading. Please wait.

I Want To Know solo tab

by Kongos
478 views 12 this week
no commentswrite comment
1 2 3 4 5
2 more votes to show rating
add to favorites
×
Save as Personal and add changes to this tab that will be seen only by you. Learn more ›
×
You can save this tab as Personal to edit and correct it or add notes. All changes will be seen only by you. Learn more »
launch autoscroll
font size
0
reset
how to read this tab
guitar tuner
edit
Autoscroll
slow
fast
+/-
esc
set tempo
stop
Author
Difficulty
-------------------------------------------------------------------------------
                            I Want To Know - Kongos
-------------------------------------------------------------------------------

Tuning: Standard 
Song-I Want to Know
Artist-Kongos
Tabbed by-YodaSoda

Solo:

e|12-\11-11-\9-/11-----------------------------------------------------------|
B|-----------------12-\11-\9------9-/12-\11-\9---9---------------------------|
G|---------------------------8-/9--------------8-----------------------------|
D|---------------------------------------------------------------------------|
A|---------------------------------------------------------------------------|
E|---------------------------------------------------------------------------|

e|----------------------------------------------------------12-11------------|
B|4-/5-\3-4-/9-4-/5-\3-4-/12-4-/5-\3-4-/16-16-12-/13-\11-12------------------|
G|---------------------------------------------------------------------------|
D|---------------------------------------------------------------------------|
A|---------------------------------------------------------------------------|
E|---------------------------------------------------------------------------|

************************************
| /   slide up
| \   slide down
| h   hammer-on
| p   pull-off
| ~   vibrato
| +   harmonic
| x   Mute note
| b   Bend
| pb  Pre-bend
| br  Bend release
| pbr Pre-bend release
| brb Bend release bend
************************************ 

Should be noted that Daniel Kongos uses a slide and a tremolo arm to create the 
slide and vibrato effects.

If you have neither of these, you can use finger tremolo in place of the tremolo arm, 
and slide from note to note with your fingers in place of the slide. 

            
            
Suggest correction
Creating personal tab
Creating personal tab
You can edit any tab online and save it as your Personal.

You can edit, replace or remove any tab part or add personal notes – all changes will be seen only by you.

Personal tabs can be accessed anytime from any device, even offline.
Learn more »
Give kudos to tab author, rate the tab!
1 2 3 4 5
comments
print report bad tab
guest
You may want to rate the tab now too:
select rating
Wanna post a correction for this tab? Suggest correction