Oops, an error
Loading. Please wait.

Igual De Loco tab

41 views 1 this week
no commentswrite comment
1 2 3 4 5
3 more votes to show rating
add to favorites
×
Save as Personal and add changes to this tab that will be seen only by you. Learn more ›
×
You can save this tab as Personal to edit and correct it or add notes. All changes will be seen only by you. Learn more »
launch autoscroll
font size
0
reset
how to read this tab
guitar tuner
edit
Autoscroll
slow
fast
+/-
esc
set tempo
stop
Tema dedicado a mis panas diego, migo, pipe y en
especial a unos amigos mas q unos amigos mis hermanos
el lucho y el klubio xD! y para todos los waxos! :D

INTRO: A-G-F-C-D-E6-X2

e------------------------------------------------
B------------------------------------------------
G-------------------------7-5--------------------
D-10-7-9-10-7-9-------7-9-----10-9-7---10-9-7----
A---------------10--10---------------10-------10-
E------------------------------------------------

e--------------------------------------------------------
B--------------------------------------------------------
G-------------------9-7-9-10-9-7----9--9---10-12-9..--9-10
D-10-7-9-10-7-9---9-------------10----9--9---------------
A--------------10----------------------------------------
E--------------------------------------------------------

 A                    G                F
Ya son más de uno los que he visto caer, y tirar,
 G
todo un sueño a la basura.
 A                    G                         F
Situaciones duras que nos han visto crecer y cambiar,
 G
contratiempos y locura.

PALM MUTE
 A...                        G...               F...
Aguantar el ritmo de lo que era vocación y abandonar,
PALM MUTE
e----------------------------------
b----------------------------------
g-----7-9----7-9------7-9---------- X2 DESPUES DE ESTO VIENE EL SOLO
d-7...----7...----7...----10-9-7...
a----------------------------------
e----------------------------------

          G...
es el precio del cansancio.
 A...                       G...               F...
No tengo muy claro que esto sea lo mejor, pues adios,
         G...
yo daré caña por ti.

SOLO: A-C-G-F                       A-C-G-F
e-------------------------------------------------
b-------------------------------------------------
g-------------------------------------------------
d-7--7--10--10--9-9--10-9-7----7--7--10--10--9-9--
a---7--7--7---7--7-7--------10---7--7--7---7--7-7-
e-------------------------------------------------

   A-C-G-F                  A-C-G-A
e-------------------------------------------
B-------------------------------------------
G-------------------7-10-9-7------------7-9...
D-10-9-7----7-10-9------------7-10-9----7---
A--------10-------10-----------------10-----
E-------------------------------------------

PRECORO

 F              A
Ya son varias despedidas,
 C              G
espero que os vaya bien,
 F              A
nos vemos en otra vida,
 C             G
me vas a reconocer...

CORO

 C                                G
-Porque siempre seguiré estando igual de loco,
 F                                G
porque volveré a meterme en otra movida,
 C                                G
porque esperaré de noche a que llegue el día,
 F                                G
porque puestos a apostar me juego la vida.

A...FX-C-D-X3
C-D
A...FX-C-D-X3
C-D...

ESTROFA

 A                    G                F
Otra carretera nos atrapa y el calor hace que,
 G
pierda el rumbo por momentos
 A                    G                F
no encuentro la lógica que dé la explicación,
 G
diversión, todo un lujo para ti.

 PRECORO

 F              A
Ya son varias despedidas,
  C              G
espero que os vaya bien,
 F              A
nos vemos en otra vida,
 C              G
 me vas a reconocer...

CORO

 C                                G
-Porque siempre seguiré estando igual de loco,
 F                                G
porque volveré a meterme en otra movida,
 C                                G
porque esperaré de noche a que llegue el día,
 F                                G
porque puestos a apostar me juego la vida.
//////////////////////
cualquier duda, error o algo
envien a mi email
patoanarko16@
OJALA LES GUSTE!!! SALUDOS PATOLIN!!! :B

            
            
Suggest correction
Creating personal tab
Creating personal tab
You can edit any tab online and save it as your Personal.

You can edit, replace or remove any tab part or add personal notes – all changes will be seen only by you.

Personal tabs can be accessed anytime from any device, even offline.
Learn more »
Give kudos to tab author, rate the tab!
1 2 3 4 5
comments
print report bad tab
guest
Wanna post a correction for this tab? Suggest correction