Oops, an error
Loading. Please wait.

The Smash Song album tab

version 1
version 1

Album

Whole song

1,384 views 1 this week
2 commentsread comments
1 2 3 4 5
x 4
add to favorites
×
Save as Personal and add changes to this tab that will be seen only by you. Learn more ›
×
You can save this tab as Personal to edit and correct it or add notes. All changes will be seen only by you. Learn more »
launch autoscroll
font size
0
reset
how to read this tab
guitar tuner
edit
Autoscroll
slow
fast
+/-
esc
set tempo
stop
Made By Quinten

Artist: Kontrust
album: Time to Tango


mail me for more information: quinten_johan55@hotmail.com

-----------------------------------------------------------------------------
up down = push the string up and then down
picking up = ^


intro 2x


E --10---------------------   --10------------------------|
B -------------------------   ----------------------------|
G -----12up-down--10-------   -----12up-down--10--12up----|
D -------------------12----   ----------------------------|
A -------------------------   ----------------------------|
E -------------------------   ----------------------------|

couplet 3x 


E -------------------------  ----------------|
B -------------------------  ----------------|
G -------------------------  ----------------|
D -------------------------  ----------------|
A -3-4-3-4-344-3-----------  -6-6-6-6--------|
E -3-4-3-4-344-3-----------  -6-6-6-6--------|
            ^^                ^ ^ ^ ^

Couplet 3x
intro   2x


chorus

E ----------------------------------------------------------------|
B ----------------------------------------------------------------|
G ----------------------------------------------------------------|
D --7---------3---------5------8------7------3------5-------------|
A --5--8X-----3--8x-----5--8x--8--8x--5--8x--3--8x--5--8x---------|
E --5---------1---------3------6------5------1------3-------------|


couplet 9x
intro   2x
refrein 2x ( again 2 times)


Solo 8x

E -----------------|
B -----------------|
G -----------------|
D -------7---5-----|
A --55-5---8-------|
E -----------------|


refrein 4x
couplet 4x


This is the whole song!


            
            
Suggest correction
Creating personal tab
Creating personal tab
You can edit any tab online and save it as your Personal.

You can edit, replace or remove any tab part or add personal notes – all changes will be seen only by you.

Personal tabs can be accessed anytime from any device, even offline.
Learn more »
comments
print report bad tab
2 comments total.
0 reply
BurnTheRoof 40 Feb 10, 2011 09:56 AM

I can tell you one thing: This tab is wrong on so many levels.

The song is most definitely not in standard tuning. Probably in dropped tuning, but my ears can't decide which drop tuning. There are variations in the couplet at several points and the chords in the chorus seem to hit the top 3 strings as well, because otherwise I don't have a clue where they managed to get the high pitched sound I hear in the chorus. In the last 30 or so seconds there's a part played on guitar which is missing in the tab. If you'll listen to the song you'll hear a fairly high frequency sound that's constantly repeated and it's missing here.

And to conclude my rant: you forgot to translate refrein and couplet into verse and chorus several times.

0 reply
jasperik 949 Oct 01, 2012 08:39 AM

pretty much all their songs are in C tuning, most can be played in drop C but some like this one can be done in normal C tuning to get the high pitxch sound although its not really required, i play it in drop C as my tab shows

guest
You may want to rate the tab now too:
select rating
Wanna post a correction for this tab? Suggest correction