Oops, an error
Loading. Please wait.

Tonight chords

235 views 1 this week
2 commentsread comments
1 2 3 4 5
x 6
add to favorites
×
Save as Personal and add changes to this tab that will be seen only by you. Learn more ›
×
You can save this tab as Personal to edit and correct it or add notes. All changes will be seen only by you. Learn more »
launch autoscroll
font size
0
reset
transpose
0
reset
display chords
guitar tuner
edit
Autoscroll
slow
fast
+/-
esc
set tempo
stop
Strumming
There is no strumming pattern for this song yet. and get +5 IQ
https://www.youtube.com/watch?v=J3HOTPtTKaQ

[Intro]
Dm C Bb C
Dm C Bb C

[Chorus]
Dm       C
Tonight, ooh
Bb                C
This is the night you'll see the light
Dm       C
Tonight, ooh
Bb                C
This is the night you'll see the light

[Verse]
    My 16th birthday I was so shy
e|--------3------------1--------|
B|------3------------1----------|
G|----2------------2------------|
D|--0------------0--------------|
A|------------------------------|
E|------------------------------|

F Bb                           C
     Not yet a man but ready to try

 Music playin', people swayin'
e|--------3------------1--------|
B|------3------------1----------|
G|----2------------2------------|
D|--0------------0--------------|
A|------------------------------|
E|------------------------------|

F Bb                               C
     I looked around she caught my eye

  Smoke filled the room I could hardly see
e|--------3------------1------------------|
B|------3------------1--------------------|
G|----2------------2----------------------|
D|--0------------0------------------------|
A|----------------------------------------|
E|----------------------------------------|

F Bb                               C
     There she was moving closer to me

 She told me her name before I could speak
e|--------3------------1--------------|
B|------3------------1----------------|
G|----2------------2------------------|
D|--0------------0--------------------|
A|------------------------------------|
E|------------------------------------|

F Bb                                              
    Took my hand and then she said these words to me

[Chorus]
Dm       C
Tonight, ooh
Bb                C
This is the night you'll see the light
Dm       C
Tonight, ooh
Bb                C
This is the night you'll see the light

[Verse]
  Hey, beautiful girl so lovely tonight
e|--------3------------1--------------|
B|------3------------1----------------|
G|----2------------2------------------|
D|--0------------0--------------------|
A|------------------------------------|
E|------------------------------------|

F Bb                            C
    Show me the way show me the light

    Music playin', people swayin'
e|--------3------------1--------------|
B|------3------------1----------------|
G|----2------------2------------------|
D|--0------------0--------------------|
A|------------------------------------|
E|------------------------------------|

F Bb                                C
    Next thing I knew we started to groove

   Dancin' and dancin' moving so free
e|--------3------------1--------------|
B|------3------------1----------------|
G|----2------------2------------------|
D|--0------------0--------------------|
A|------------------------------------|
E|------------------------------------|

F Bb                                C
    A feeling of love had come over me

    I held her close and knew it was right
e|--------3------------1--------------|
B|------3------------1----------------|
G|----2------------2------------------|
D|--0------------0--------------------|
A|------------------------------------|
E|------------------------------------|

F Bb                                               
    What a perfect surprise I had finally seen the light

[Chorus]
Dm       C
Tonight, ooh
Bb                C
This is the night you'll see the light
Dm       C
Tonight, ooh
Bb                C
This is the night you'll see the light

[Bridge]
F                 C               Bb
Tonight, you will finally see the light
Bb
(Oh baby)
F                 C               Bb
Tonight, you will finally see the light
Bb
(Oh baby)
F                 C               Bb
Tonight, you will finally see the light
Bb
(You will see, ooh you will see the light)
F                 C               Bb
Tonight, you will finally see the light
Bb
(Ooh yeah)

[Solo]
Dm C Bb C
Dm C Bb C

[Chorus] (x2)
Dm       C
Tonight, ooh
Bb                C
This is the night you'll see the light
Dm       C
Tonight, ooh
Bb                C
This is the night you'll see the light

            
            
Suggest correction
Creating personal tab
Creating personal tab
You can edit any tab online and save it as your Personal.

You can edit, replace or remove any tab part or add personal notes – all changes will be seen only by you.

Personal tabs can be accessed anytime from any device, even offline.
Learn more »
comments
print report bad tab
2 comments total.
+1 reply
rowan18 10 Feb 22, 2017 11:26 PM, edited on February 23 2017, 04:26 am

Marvelous, I can see you put a lot of work into this -- thanks :P

0 reply
rowan18 10 Feb 22, 2017 11:31 PM

Couple of minor corrections to the lyrics:

- "Walked into the room I couldn't hardly see" should be "Smoke filled room I could hardly see"

- "Dancin' and dancin'" should be "Dancin' and prancin'"

guest
You may want to rate the tab now too:
select rating
Wanna post a correction for this tab? Suggest correction