Oops, an error
Loading. Please wait.

Heartbeat bass

148 views 1 this week
no commentswrite comment
1 2 3 4 5
1 last vote to show rating
add to favorites
×
Save as Personal and add changes to this tab that will be seen only by you. Learn more ›
×
You can save this tab as Personal to edit and correct it or add notes. All changes will be seen only by you. Learn more »
launch autoscroll
font size
0
reset
guitar tuner
edit
Autoscroll
slow
fast
+/-
esc
set tempo
stop
Author
Difficulty
-------------------------------------------------------------------------------
                             Heartbeat - Kopecky
-------------------------------------------------------------------------------
Tabbed by: RockyRaccoon_
E-mail: 

Tuning: E A D G

Intro/Chorus: 
  1 + 2 + 3 + 4 + 1 + 2 + 3 + 4 + 1 + 2 + 3 + 4 + 1 + 2 + 3 + 4 +
G|---------------|---------------|---------------|---------------|
D|5-------5-5---7|------5-7-7-5--|---------------|---------------|
A|------5--------|---------------|7-----5-7-----7|------5---7-5--|
E|---------------|---------------|---------------|---------------|

  1 + 2 + 3 + 4 + 1 + 2 + 3 + 4 + 1 + 2 + 3 + 4 + 1 + 2 + 3 + 4 +
G|---------------|---------------|---------------|---------------|
D|5-------5-5---7|------5-7-7-5--|---------------|---------------|
A|------5--------|---------------|7-----5-7-----7|------5---7-5\-|
E|---------------|---------------|---------------|---------------|

Verse:
  1 + 2 + 3 + 4 + 1 + 2 + 3 + 4 + 1 + 2 + 3 + 4 + 1 + 2 + 3 + 4 +
G|---------------|---------------|---------------|---------------|
D|---------------|---------------|---------------|---------------|
A|------------2--|---------------|------------2--|---------------|
E|3-----x-3-5---0|---------------|3-----x-3-5---0|---------------|

  1 + 2 + 3 + 4 + 1 + 2 + 3 + 4 + 1 + 2 + 3 + 4 + 1 + 2 + 3 + 4 +
G|---------------|---------------|---------------|---------------|
D|---------------|---------------|---------------|---------------|
A|------------2--|---------------|--------2------|---------------|
E|3-----x-3-5---0|---------------|3-----3---5-3-0|---------------|

  1 + 2 + 3 + 4 + 1 + 2 + 3 + 4 + 1 + 2 + 3 + 4 + 1 + 2 + 3 + 4 +
G|---------------|---------------|---------------|---------------|
D|---------------|---------------|---------------|---------------|
A|------------2--|---------------|------------2--|---------------|
E|3-----x-3-5---0|---------------|3-----x-3-5---0|----------2---2|

  1 + 2 + 3 + 4 + 1 + 2 + 3 + 4 + 1 + 2 + 3 + 4 +  1 + 2 + 3 + 4 +
G|---------------|---------------|----------------|---------------|
D|---------------|---------------|----------------|---------------|
A|------------2--|---------------|--------2-------|---------------|
E|3-----x-3-5---0|---------------|3-----3---5-3/12|---------------|

Chorus:
  1 + 2 + 3 + 4 + 1 + 2 + 3 + 4 + 1 + 2 + 3 + 4 + 1 + 2 + 3 + 4 +
G|---------------|---------------|---------------|---------------|
D|5-------5-----7|------5-7---5--|---------------|---------------|
A|------5-----5--|---------------|7-----5-7-----7|------5-7---5--|
E|---------------|---------------|---------------|---------------|

  1 + 2 + 3 + 4 + 1 + 2 + 3 + 4 + 1 + 2 + 3 + 4 + 1 + 2 + 3 + 4 +
G|---------------|---------------|---------------|---------------|
D|5-------5-----7|------5-7-7-5--|---------------|---------------|
A|------5-----5--|---------------|7-----5-7-----7|------5-7---5\-|
E|---------------|---------------|---------------|---------------|

Verse 2:
  1 + 2 + 3 + 4 + 1 + 2 + 3 + 4 + 1 + 2 + 3 + 4 + 1 + 2 + 3 + 4 +
G|---------------|---------------|---------------|---------------|
D|---------------|---------------|---------------|---------------|
A|---------------|---------------|---------------|---------------|
E|---------------|---------------|---------------|---------------|

  1 + 2 + 3 + 4 + 1 + 2 + 3 + 4 + 1 + 2 + 3 + 4 + 1 + 2 + 3 + 4 +
G|---------------|---------------|---------------|---------------|
D|---------------|---------------|--------------2|--------2------|
A|------------2--|---------------|----------2-5--|------5-----5--|
E|3-----x-3-5---0|---------------|3-----x-3------|---------------|

  1 + 2 + 3 + 4 + 1 + 2 + 3 + 4 + 1 + 2 + 3 + 4 + 1 + 2 + 3 + 4 +
G|---------------|---------------|---------------|---------------|
D|---------------|---------------|---------------|---------------|
A|------------2--|---------------|------------2--|---------------|
E|3-----x-3-5---0|---------------|3-----x-3-5---0|---------------|

  1 + 2 + 3 + 4 + 1 + 2 + 3 + 4 + 1 + 2 + 3 + 4 +  1 + 2 + 3 + 4 +
G|---------------|---------------|----------------|---------------|
D|---------------|---------------|----------------|---------------|
A|------------2--|---------------|--------2-------|---------------|
E|3-----x-3-5---0|---------------|3-----3---5-3/12|---------------|

Chorus 2:
  1 + 2 + 3 + 4 + 1 + 2 + 3 + 4 + 1 + 2 + 3 + 4 + 1 + 2 + 3 + 4 +
G|---------------|---------------|---------------|---------------|
D|5-------5-----7|------5-7---5--|---------------|---------------|
A|------5-----5--|---------------|7-----5-7-----7|------5-7---5--|
E|---------------|---------------|---------------|---------------|

  1 + 2 + 3 + 4 + 1 + 2 + 3 + 4 + 1 + 2 + 3 + 4 + 1 + 2 + 3 + 4 +
G|---------------|---------------|---------------|---------------|
D|5-------5-----7|------5-7---5--|---------------|---------------|
A|------5-----5--|---------------|7-----5-7-----7|------5-7---5--|
E|---------------|---------------|---------------|---------------|

  1 + 2 + 3 + 4 + 1 + 2 + 3 + 4 + 1 + 2 + 3 + 4 + 1 + 2 + 3 + 4 +
G|---------------|---------------|---------------|---------------|
D|5-------5-----7|------5-7---5--|---------------|---------------|
A|------5-----5--|---------------|7-----5-7-----7|------5-7---5--|
E|---------------|---------------|---------------|---------------|

  1 + 2 + 3 + 4 + 1 + 2 + 3 + 4 + 1 + 2 + 3 + 4 + 1 + 2 + 3 + 4 +
G|---------------|---------------|---------------|---------------|
D|5-------5-----7|------5-7---5--|---------------|---------------|
A|------5-----5--|---------------|7-----5-7-----7|------5-7---5\-|
E|---------------|---------------|---------------|---------------|

Bridge:
  1 + 2 + 3 + 4 + 1 + 2 + 3 + 4 + 1 + 2 + 3 + 4 + 1 + 2 + 3 + 4 +
G|---------------|---------------|---------------|---------------|
D|---------------|---------------|---------------|---------------|
A|---------------|3--------------|3-------3------|---2-----------|
E|0----------/3--|--------------3|------3-------3|5---5----------|

  1 + 2 + 3 + 4 + 1 + 2 + 3 + 4 + 1 + 2 + 3 + 4 + 1 + 2 + 3 + 4 +
G|---------------|---------------|---------------|---------------|
D|---------------|---------------|---------------|---------------|
A|---------------|3--------------|3-------3------|---2-----------|
E|0----------/3--|--------------3|------3-------3|5---5----------|

  1 + 2 + 3 + 4 + 1 + 2 + 3 + 4 + 1 + 2 + 3 + 4 + 1 + 2 + 3 + 4 +
G|---------------|---------------|---------------|---------------|
D|---------------|---------------|---------------|---------------|
A|---------------|3--------------|3-------3------|---2-----------|
E|0----------/3--|--------------3|------3-------3|5---5----------|

  1 + 2 + 3 + 4 + 1 + 2 + 3 + 4 + 1 + 2 + 3 + 4 + 1 + 2 + 3 + 4 +
G|---------------|---------------|---------------|---------------|
D|---------------|---------------|---------------|---------------|
A|---------------|3--------------|3-------3------|---2-----------|
E|0----------/3--|--------------3|------3-------3|5---5----------|

Pre-Chorus
  1 + 2 + 3 + 4 + 1 + 2 + 3 + 4 + 1 + 2 + 3 + 4 + 1 + 2 + 3 + 4 +
G|---------------|---------------|---------------|---------------|
D|5-------5-5---7|------5-7-7-5--|---------------|---------------|
A|------5--------|---------------|7-----5-7-----7|---------------|
E|---------------|---------------|---------------|---------------|

Chorus 3:

  1 + 2 + 3 + 4 + 1 + 2 + 3 + 4 + 1 + 2 + 3 + 4 + 1 + 2 + 3 + 4 +
G|---------------|---------------|---------------|---------------|
D|5-------5-----7|------5-7---5--|---------------|---------------|
A|------5-----5--|---------------|7-----5-7-----7|------5-7---5--|
E|---------------|---------------|---------------|---------------|

  1 + 2 + 3 + 4 + 1 + 2 + 3 + 4 + 1 + 2 + 3 + 4 + 1 + 2 + 3 + 4 +
G|---------------|---------------|---------------|---------------|
D|5-------5-----7|------5-7---5--|---------------|---------------|
A|------5-----5--|---------------|7-----5-7-----7|--5\-----------|
E|---------------|---------------|---------------|------------0--|

  1 + 2 + 3 + 4 + 1 + 2 + 3 + 4 + 1 + 2 + 3 + 4 + 1 + 2 + 3 + 4 +
G|---------------|--------------7|9-9-9----------|9-9-9-7-7------|
D|5-5-5-5-5-5-5-7|--7-7-7-7-7-9--|------9-------9|----------9-9-7|
A|---------------|---------------|--------7-7-7--|---------------|
E|---------------|---------------|---------------|---------------|

  1 + 2 + 3 + 4 + 1 + 2 + 3 + 4 + 1 + 2 + 3 + 4 + 1 + 2 + 3 + 4 +
G|---------------|---------------|---------------|---------------|
D|5-5-5-5-5-5-5-5|7-7-7-7-7-5-7-5|---------------|---------------|
A|---------------|---------------|7\-------------|---------------|
E|---------------|---------------|---------------|---------------|


| /  slide up
| \  slide down
| h  hammer-on
| p  pull-off
| ~  vibrato
| +  harmonic
| x  Mute note
===============================================================================

            
            
Suggest correction
Creating personal tab
Creating personal tab
You can edit any tab online and save it as your Personal.

You can edit, replace or remove any tab part or add personal notes – all changes will be seen only by you.

Personal tabs can be accessed anytime from any device, even offline.
Learn more »
Give kudos to tab author, rate the tab!
1 2 3 4 5
comments
print report bad tab
guest
You may want to rate the tab now too:
select rating
Wanna post a correction for this tab? Suggest correction