Oops, an error
Loading. Please wait.

Sin City bass

by Kopek
147 views 1 this week
no commentswrite comment
1 2 3 4 5
3 more votes to show rating
add to favorites
×
Save as Personal and add changes to this tab that will be seen only by you. Learn more ›
×
You can save this tab as Personal to edit and correct it or add notes. All changes will be seen only by you. Learn more »
launch autoscroll
font size
0
reset
guitar tuner
edit
Autoscroll
slow
fast
+/-
esc
set tempo
stop
Difficulty
intermediate
Tabbed: by Qucka777
A.k.a Gregoire.Xavier.Seaman

Song Link: http://www.youtube.com/watch?v=khTRDYhwUIo

My Bass teacher helped me find the bass part to this song, but here I posted some minor 
additions to give the bass more feel.

Main Riff:

------------------------------|
-------------------77---------|
-------7----7-----------9-----|
--5-55----5----555------------|

The additional 7 is optional

Play the Main Riff to 1:21, and play this once and let it ring.
------------------|
--7*--------------|
--7*--------------|
--5*--------------|

At 1:37 "So listen God when will your kingdom come" Continue playing Main Riff:
-------------------------------|
-------------------77----------|
-------7----7-----------9------|
--5-55----5----555-------------|

Stop playing Main Riff at 2:14 "Its Beautiful"
Start at 2:18 "Backstabbin money grabbin' teenage punk"
Play with the Tempo, and you'll get it right away.

-------------------------------------------------------------|
----------------------------------------------7--------------|
-------7------------7*----------7--------------9p7h9---------|
---5--------5--5-5-5--------5--------5--5-5-5----------------|

(x4) End at 2:42 "Stands up to rock and sits down to roll"

Continue Main Riff: 2:43

------------------------------|
-------------------77---------|
-------7----7-----------9-----|
--5-55----5----555------------|

Stop Main Riff at 3:48 "Aww yeah this is how we do it"

End Riff at 3:48

--------------------5h7----|
-----------------5-7-------|
--------3--5--7------------|
--3--5---------------------|

(x3)

            
            
Suggest correction
Creating personal tab
Creating personal tab
You can edit any tab online and save it as your Personal.

You can edit, replace or remove any tab part or add personal notes – all changes will be seen only by you.

Personal tabs can be accessed anytime from any device, even offline.
Learn more »
Give kudos to tab author, rate the tab!
1 2 3 4 5
comments
print report bad tab
guest
Wanna post a correction for this tab? Suggest correction