Oops, an error
Loading. Please wait.

The Easy Way bass

by Kopek
181 views 1 this week
no commentswrite comment
1 2 3 4 5
3 more votes to show rating
add to favorites
×
Save as Personal and add changes to this tab that will be seen only by you. Learn more ›
×
You can save this tab as Personal to edit and correct it or add notes. All changes will be seen only by you. Learn more »
launch autoscroll
font size
0
reset
guitar tuner
edit
Autoscroll
slow
fast
+/-
esc
set tempo
stop
Difficulty
This is an amazing song, and really easy. (I think I am 100% correct.)

4/4 timing.
Held note = ~.

Bass starts at 00:16.

Verse x6
G|-------------------------------4~------------------------------|
D|--5-5-4-4-5-5-4-4-2-2-4-4-5-5-4--------------------------------|
A|---------------------------------------------------------------|
E|---------------------------------------------------------------|

Chorus x3
G|---------------------------------------------------------------|
D|--------------------------9-10-12-10-9-------------------------|
A|---------------------------------------------------------------|
E|--3-3-333-0-00-000-7-7-77--------------------------------------|

Play the verse through the bridge section that starts at 1:52.
Listen to the song for exact timing if you feel mine is wrong. (also the second and last 
chorus go on for 2 or 3 extra bars.)

Thank you.

            
            
Suggest correction
Creating personal tab
Creating personal tab
You can edit any tab online and save it as your Personal.

You can edit, replace or remove any tab part or add personal notes – all changes will be seen only by you.

Personal tabs can be accessed anytime from any device, even offline.
Learn more »
Give kudos to tab author, rate the tab!
1 2 3 4 5
comments
print report bad tab
guest
Wanna post a correction for this tab? Suggest correction