Oops, an error
Loading. Please wait.

Seigfried tab

16 views 9 this week
no commentswrite comment
1 2 3 4 5
3 more votes to show rating
add to favorites
×
Save as Personal and add changes to this tab that will be seen only by you. Learn more ›
×
You can save this tab as Personal to edit and correct it or add notes. All changes will be seen only by you. Learn more »
launch autoscroll
font size
0
reset
how to read this tab
guitar tuner
edit
Autoscroll
slow
fast
+/-
esc
set tempo
stop
[Verse 1]
  Cmaj7     Am7       Em        Dmaj7      Cmaj7              Am7       Em        Dmaj9
e|-----0---|-----0---|-----0---|-----2----|-------0----------|-----0---|-----0---|-----2--0-|
B|-----0---|-----1---|-----0---|-----2--2-|-----0--------0---|-----1---|-----0---|-----2--2-|
G|-----0---|-----0---|-----0---|-----2----|---0--------------|-----0---|-----0---|-----2----|
D|---------|---------|---------|-0------0-|------------------|---------|---------|-0------0-|
A|-3-------|-0-------|---------|----------|-3---------3----3-|-0-------|---------|----------|
E|---------|---------|-0-------|----------|------------------|---------|-0-------|----------|
Cmaj7  Am7                          Em
        The markings on your surface
            Dmaj7   Cmaj7   Am7
Your speckled face
                                  Em   Dmaj9
Flawed crystals hang from your ears

  Cmaj7      Am7        Em         Dmaj9      Cmaj7      Am7        Em         Dmaj9
e|-----0----|-----0----|-----0----|-----2--0-|-----0----|-----0----|-----0----|-----2--0-|
B|-----0--0-|-----1--1-|-----0--0-|-----2--2-|-----0--0-|-----1--1-|-----0--0-|-----2--2-|
G|-----0----|-----0----|-----0----|-----2----|-----0----|-----0----|-----0----|-----2----|
D|----------|----------|----------|-0------0-|----------|----------|----------|-0------0-|
A|-3------3-|-0------0-|----------|----------|-3------3-|-0------0-|----------|----------|
E|----------|----------|-0------0-|----------|----------|----------|-0------0-|----------|
Cmaj7                       Am7
    I couldn't gauge your fears
Em                      Dmaj7   Cmaj7
 I can't relate to my peers
                    Am7   Em
I'd rather live outside
                     Dmaj9                       (Cmaj7)
I'd rather chip my pride than lose my mind out here

  Cmaj7      Am7        Em         Dmaj9      Cmaj7      Am7        Em         Dmaj7
e|-----0----|-----0----|-----0----|-----2--0-|-----0----|-----0----|-----0----|----------|
B|-----0--0-|-----1--1-|-----0--0-|-----2--2-|-----0--0-|-----1--1-|-----0--0-|-2---2--2-|
G|-----0----|-----0----|-----0----|-----2----|-----0----|-----0----|-----0----|-2---2--2-|
D|----------|----------|----------|-0------0-|----------|----------|----------|-0---0--0-|
A|-3------3-|-0------0-|----------|----------|-3------3-|-0------0-|----------|----------|
E|----------|----------|-0------0-|----------|----------|----------|-0------0-|----------|
Cmaj7           Am7    Em
     Maybe I'm a fool
            Dmaj9
Maybe I should move
           Cmaj7                        Am7
And settle, two kids and a swimming pool
             Em  Dmaj7
I'm not brave

[Verse 2]
  Cmaj7      Am7        Em         Dmaj9
e|-----0----|-----0----|-----0----|-----2--0-|-----0----|-----0----|-----0----|-----2--0-|
B|-----0--0-|-----1--1-|-----0--0-|-----2--2-|-----0--0-|-----1--1-|-----0--0-|-----2--2-|
G|-----0----|-----0----|-----0----|-----2----|-----0----|-----0----|-----0----|-----2----|
D|----------|----------|----------|-0------0-|----------|----------|----------|-0------0-|
A|-3------3-|-0------0-|----------|----------|-3------3-|-0------0-|----------|----------|
E|----------|----------|-0------0-|----------|----------|----------|-0------0-|----------|
Cmaj7                     Am7
     I'm living over city
                               Em     Dmaj9
And taking in the homeless sometimes, ah
Cmaj7 
   Been living in an idea
   Am7                       Em   Dmaj9
An idea from another man's mind

  Cmaj7     Am7       Em         Dmaj7      Cmaj7      Am7        Em         Dmaj7
e|-----0---|-----0---|-----0----|-----2--0-|-----0----|-----0----|-----0----|----------|
B|-----0---|-----1---|-----0--0-|-----2--2-|-----0--0-|-----1--1-|-----0--0-|-2---2--2-|
G|-----0---|-----0---|-----0----|-----2----|-----0----|-----0----|-----0----|-2---2--2-|
D|---------|---------|----------|-0------0-|----------|----------|----------|-0---0--0-|
A|-3-------|-0-------|----------|----------|-3------3-|-0------0-|----------|----------|
E|---------|---------|-0------0-|----------|----------|----------|-0------0-|----------|
           Cmaj7
Maybe I'm a fool
        Am7                               Em
To settle for a place with some nice views
           Dmaj9
Maybe I should move
           Cmaj7                         Am7
Settle down, two kids and a swimming pool
             Em  Dmaj7
I'm not brave

[Chorus]
  Cmaj7       Am7         Em          Dmaj7       Cmaj7       Am7         Em          Dmaj9
e|-0---------|-0---------|-0---------|-2---------|-0---------|-0---------|-0---------|-2--2--0---|
B|-0---------|-1---------|-0---------|-2---------|-0---------|-1---------|-0---------|-2--2--2---|
G|-0-(strum)-|-0-(strum)-|-0-(strum)-|-2-(strum)-|-0-(strum)-|-0-(strum)-|-0-(strum)-|-2--2--2---|
D|-2---------|-2---------|-2---------|-0---------|-2---------|-2---------|-2---------|-0--0--0---|
A|-3---------|-0---------|-2---------|-----------|-3---------|-0---------|-2---------|-----------|
E|-----------|-----------|-0---------|-----------|-----------|-----------|-0---------|-----------|
                    Cmaj7  Am7
I'd rather live outside
                    Em
I'd rather live outside
                 Dmaj7
I'd rather go to jail
           Cmaj7           Am7
I've tried hell, it's a loop
                           Em   Dmaj9
What would you recommend I do?

[Bridge]
  Cmaj7   Am7     Em      Dmaj9       Cmaj7      Am7        Em         Dmaj9
e|-0-----|-0-----|-------|-2-----0---|-0----0---|-----0----|-----0----|-----2--0-|
B|-0-----|-1-----|-0-----|-2--0--2---|-0----0---|-----1--1-|-----0--0-|-----2--2-|
G|-0-----|-0-----|-0-----|-----------|-0----0---|-----0----|-----0----|-----2----|
D|-------|-------|-------|-0--0--0---|----------|----------|----------|-0------0-|
A|-3-----|-0-----|-------|-----------|-3----3---|-0------0-|----------|----------|
E|-------|-------|-0-----|-----------|----------|----------|-0------0-|----------|
Cmaj7
Speaking of Nirvana, it was there
            Am7
Rare as the feathers on my dash from a phoenix
              Em                                      Dmaj9
There with my crooked teeth and companion sleeping, yeah
Cmaj7
Dreaming a thought that could dream about a thought
           Am7
That could think of the dreamer that thought
           Em                                            Dmaj9
That could think of dreaming and getting a glimmer of God

  Cmaj7      Am7        Em         Dmaj9
e|-----0----|-----0----|-----0----|-0----0---|
B|-----0--0-|-----1--1-|-----0--0-|-2----2---|
G|-----0----|-----0----|-----0----|----------|
D|----------|----------|----------|-0----0---|
A|-3------3-|-0------0-|----------|----------|
E|----------|----------|-0------0-|----------|
     Cmaj7
I be dreaming of dreaming a thought
                         Am7
That could dream about a thought
That could think of dreaming a dream
        Em              Dmaj9
Where I cannot, where I cannot

  Cmaj7   Am7     Em      Dmaj7       D7
e|-0-----|-0-----|-------|----------|-2-----|
B|-0-----|-1-----|-0-----|-2----2---|-1-----|
G|-0-----|-0-----|-0-----|-2----2---|-------|
D|-------|-------|-------|-0----0---|-0-----|
A|-3-----|-0-----|-------|----------|-------|
E|-------|-------|-0-----|----------|-------|
Cmaj7
Less morose and more present
Am7
Dwell on my gifts for a second
  Em
A moment one solar flare we're consumed
                       Dmaj7
So why not spend this flammable paper on the film that's my life?
     D7                                                  (Cmaj7)
High flights, inhale the vapor, exhale once and think twice

  Cmaj7       Am7       Em        Dmaj9      D7      Cmaj7      Am7        Em         Dmaj9
e|-------0---|-------0-|-----0---|-----2--0-|-2-----|-----0----|-----0----|-----0----|-----2--0-|
B|-----0-----|-----1---|-----0---|-----2--2-|-1-----|-----0--0-|-----1--1-|-----0--0-|-----2--2-|
G|---0-------|---0-----|-----0---|-----2----|-------|-----0----|-----0----|-----0----|-----2----|
D|-----------|---------|---------|-0------0-|-0-----|----------|----------|----------|-0------0-|
A|-3---------|-0-------|---------|----------|-------|-3------3-|-0------0-|----------|----------|
E|-----------|---------|-0-------|----------|-------|----------|----------|-0------0-|----------|
Cmaj7                Am7                             Em
      Eat some shrooms, maybe have a good cry about you
         Dmaj9     D7                     Cmaj7  Am7  Em  Dmaj9
See some colors, light hang glide off the moon

[Outro]
  Cmaj7      Am7        Em         Dmaj9
e|-----0----|-----0----|-----0----|-----2--0-|
B|-----0--0-|-----1--1-|-----0--0-|-----2--2-|
G|-----0----|-----0----|-----0----|-----2----|
D|----------|----------|----------|-0------0-|
A|-3------3-|-0------0-|----------|----------|
E|----------|----------|-0------0-|----------|
Cmaj7        Am7
I'd do anything for you
Em           Dmaj9
I'd do anything for you

  Cmaj7      Am9        Em7        Dmaj9      Cmaj7      Am9        Em7        Dmaj9
e|-----0----|----------|-----0----|-----2--0-|-----0----|----------|-----0----|-----2--0-|
B|-----0--0-|-----0--0-|-----0--3-|-----2--2-|-----0--0-|-----0--0-|-----0--3-|-----2--2-|
G|-----0----|-----0----|-----0----|-----2----|-----0----|-----0----|-----0----|-----2----|
D|----------|----------|----------|-0------0-|----------|----------|----------|-0------0-|
A|-3------3-|-0------0-|----------|----------|-3------3-|-0------0-|----------|----------|
E|----------|----------|-0------0-|----------|----------|----------|-0------0-|----------|
Cmaj7        Am9
I'd do anything for, anything for
Em7          Dmaj9
I'd do anything for you
Cmaj7        Am9
I'd do anything for, anything for
Em7          Dmaj9
I'd do anything for you

  Cmaj7     Am9       Em7       Dmaj9
e|----0----|---------|----0----|-----2--0-|
B|----0----|----0----|----3----|-----2--2-|
G|----0----|----0----|----0----|-----2----|
D|---------|---------|---------|-0------0-|
A|-3-------|-0-------|---------|----------|
E|---------|---------|-0-------|----------|
Cmaj7       Am9
I'd do anything for, anything for
Em7         Dmaj9
I'd do anything for you

            
            
Suggest correction
Creating personal tab
Creating personal tab
You can edit any tab online and save it as your Personal.

You can edit, replace or remove any tab part or add personal notes – all changes will be seen only by you.

Personal tabs can be accessed anytime from any device, even offline.
Learn more »
Give kudos to tab author, rate the tab!
1 2 3 4 5
comments
print report bad tab
guest
You may want to rate the tab now too:
select rating
Wanna post a correction for this tab? Suggest correction