Oops, an error
Loading. Please wait.

10 Or A 2 Way Bass Tab

by Korn
353 views 3 this week
no commentswrite comment
1 2 3 4 5
please rate
add to favorites
launch autoscroll
font size
0
reset
guitar tuner
Tab Pro tools
  • play this tab
  • loop segment
  • change instrument
  • show fretboard
  • metronome
×
Best way to learn
"10 Or A 2 Way"
Autoscroll
slow
fast
+/-
esc
set tempo
stop
Contributor
Difficulty
intermediate
-------------------------------------------------------------------------------
                            10 or a 2 Way - Korn
-------------------------------------------------------------------------------

Tabbed by: TBone142
e-mail: tbone142@freemail.hu

Tuning: standard BEADG

Intro:
G|----------------------------------|
D|----------------------------------|
A|----------------------------------|
E|-4-4-4----------------------------|x3
B|---------6-5-3-5---6-5---5-6-5-3--|

G|------------------------|
D|------------------------|
A|------------------------|
E|-4-4-4------------------|
B|---------6-5-3-5---6-5--|

Verse 1:
G|----------------------------------------------------------|
D|-----------------------7-8------------------------7-7-8---|
A|--------------3------------7-------------3----------------|
E|-5-5-5-5-3-5-----5---5----------5---3-5-----5---5---------|x2
B|-------------------5--------------------------5-----------|

G|-------------------------------------------------------------------|
D|-----------------------10-10-11--------------------10-11-9---------|
A|--------------6---------------------------6------------------------|
E|-8-8-8-8-6-8-----8---8------------8--6-8-----8---8-----------------|
B|-------------------8---------------------------8-------------------|

G|----------------------------------------------------------|
D|-----------------------7-8------------------------7-7-8---|
A|--------------3------------7-------------3----------------|
E|-5-5-5-5-3-5-----5---5----------5---3-5-----5---5---------|
B|-------------------5--------------------------5-----------|

Bridge:
G|------------------------------|
D|-7----------7-8-----------8---|
A|---7------7------7------7-----|
E|-----5--5----------6--6-------|x4
B|------------------------------|

Chorus:
G|------------------------------|
D|------------------------------|
A|------------------------------|
E|----4--2--------2-------------|x3
B|-2-------5-4-5----5--4-5-4----|

G|------------------------------|
D|------------------------------|
A|------------------------------|
E|----4--2--------2----9\3------|
B|-2-------5-4-5----5-----------|

Bridge:
G|----------------------------------------------------------|
D|---------------------7-7-8----------------------7-7-7-8---|
A|--------------3------------7-------------3----------------|
E|-5-5-5-5-3-5-----5--------------5---3-5-----5-------------|
B|-------------------5--------------------------5-----------|

G|----------------------------------------------------------|
D|---------------------7-7-8----------------------7-7\4-----|
A|--------------3------------7-------------3----------------|
E|-5-5-5-5-3-5-----5--------------5---3-5-----5-------------|
B|-------------------5--------------------------5-----------|

Verse 2:
G|----------------------------------------------------------|
D|-----------------------7-8------------------------7-7-8---|
A|--------------3------------7-------------3----------------|
E|-5-5-5-5-3-5-----5---5----------5---3-5-----5---5---------|x2
B|-------------------5--------------------------5-----------|

G|-------------------------------------------------------------------|
D|-----------------------10-10-11--------------------10-11-9---------|
A|--------------6---------------------------6------------------------|
E|-8-8-8-8-6-8-----8---8------------8--6-8-----8---8-----------------|
B|-------------------8---------------------------8-------------------|

G|----------------------------------------------------------|
D|-----------------------7-8------------------------7-7-8---|
A|--------------3------------7-------------3----------------|
E|-5-5-5-5-3-5-----5---5----------5---3-5-----5---5---------|
B|-------------------5--------------------------5-----------|

Bridge:
G|------------------------------|
D|-7----------7-8-----------8---|
A|---7------7------7------7-----|
E|-----5--5----------6--6-------|x4
B|------------------------------|

Chorus:
G|------------------------------|
D|------------------------------|
A|------------------------------|
E|----4--2--------2-------------|x4
B|-2-------5-4-5----5--4-5-4----|

Bridge:
G|-------------------------------------------------------------------|
D|-------------------------------------------------------------------|
A|-5-----5-6-5-----5-----5-6-5-----5-----5-6-5-----5-----5-6-5-------|
E|-----5-------6-5-----5-------6-5-----5-------6-5-----5-------6~ ---|x6
B|---3---------------3---------------3---------------3---------------|

G|-------------------------------------------------------------------|
D|-------------------------------------------------------------------|
A|-------------------------------------------------------------------|
E|-10\ --------------------------------------------------------------|
B|-------------------------------------------------------------------|

G|------------------------------|
D|------------------------------|
A|------------------------------|
E|-----4-----2------------------|x5
B|-2-------5---5--4-5-4---------|

G|------------------------------|
D|------------------------------|
A|------------------------------|
E|----4--4-----2----------------|
B|-2---------5---5---4-5-4------|

G|------------------------------|
D|------------------------------|
A|------------------------------|
E|-----4-----2------------------|x2
B|-2-------5---5--4-5-4---------|

Chorus, outro:
G|------------------------------|
D|------------------------------|
A|------------------------------|
E|----4--2--------2-------------|x3
B|-2-------5-4-5----5--4-5-4----|

G|------------------------------|
D|------------------------------|
A|------------------------------|
E|----4--2--------2-------------|
B|-2-------5-4-5----5-----------|

G|------------------------------|
D|------------------------------|
A|------------------------------|
E|----4--2--------2-------------|x3
B|-2-------5-4-5----5--4-5-4----|

G|------------------------------|
D|------------------------------|
A|------------------------------|
E|----4--2--------2----9\7~ ----|
B|-2-------5-4-5----5-----------|

===============================================================================
Notes:

If You have problems with this tab, write Me a mail what's wrong with it
instead of giving it a bad rating! It'd be better for everyone! Thx!

| /  slide up
| \  slide down
| h  hammer-on
| p  pull-off
| ~  let the note ring
| +  harmonic
| x  Mute note
===============================================================================
comments
We did not receive enough feedback on this tab! Please rate:
print report bad tab
1 2 3 4 5
I want to post or [tab]
guest
You may want to rate the tab now too:
select rating
Please do not post tabs as comments. Select "correction" instead!