Oops, an error
Loading. Please wait.

A Different World Tab

by Korn
1,099 views 129 this week
no commentswrite comment
1 2 3 4 5
x 3
add to favorites
launch autoscroll
font size
0
reset
how to read this tab
guitar tuner
Autoscroll
slow
fast
+/-
esc
set tempo
stop
Help us to improve Ultimate-Guitar.com Take our survey!
×
Author
Difficulty
Tuning
intermediate
D G C F A D
Hey everyone! Here is how to play "A Different World" by Korn from their new album The Serenity Of Suffering!
This song is for a 7-string, as are all Korn songs. 

TUNING: (Low to high)
A,D,G,C,F,A,D

Intro:
D|-------------------------------------------0--|
A|-------------------------------------------0--|
F|-------------------------------------------0--|
C|-------------------------------------------0--|
G|-----------------------------------9---9------|
D|-----------------------------------7---8------|
A|--5^--5-5-5--5^--5-5-5--5^--5-5-5--7---8------|

D|---------------------------------------------------------------|
A|---------------------------------------------------------------|
F|---------------------------------------------------------------|
C|---------------------------------------------------------------|
G|---------------------------------------------------------------|
D|---------------------------------------------------------------|
A|--5^--5-5-5--5^--5-5-5--5^--5-5-5---0--13--12--13--16--13--12--|

Verse: Play until next part. 
(1st Guitar)
(2nd Guitar rest)
D|--------------------------------------|
A|--20------22------20------19----------|
F|----------------------------------16--|
C|--------------------------------------|
G|--------------------------------------|
D|--------------------------------------|
A|--------------------------------------|

Pre Chorus:
D|--------------------------------------------------|
A|--------------------------------------------------|
F|--------------------------------------------------|
C|--10-10-10-10-10-10-10-10-10-10-10-10-10-10-10-10-|
G|--------------------------------------------------|
D|--8--8--8--8--8--8--8--8--8--8--8--8--8--8--8--8--|
A|--------------------------------------------------|

D|---------------------------------------------------------------------|
A|---------------------------------------------------------------------|
F|---------------------------------------------------------------------|
C|--10-10-10-10-10-10-10-10-10-10-10-10-10-10-10-10-12-12-12-12-12-12--|
G|---------------------------------------------------------------------|
D|--8--8--8--8--8--8--8--8--8--8--8--8--8--8--8--8--10-10-10-10-10-10--|
A|---------------------------------------------------------------------|

Intro:
D|-------------------------------------------0--|
A|-------------------------------------------0--|
F|-------------------------------------------0--|
C|-------------------------------------------0--|
G|-----------------------------------9---9------|
D|-----------------------------------7---8------|
A|--5^--5-5-5--5^--5-5-5--5^--5-5-5--7---8------|

D|---------------------------------------------------------------|
A|---------------------------------------------------------------|
F|---------------------------------------------------------------|
C|---------------------------------------------------------------|
G|---------------------------------------------------------------|
D|---------------------------------------------------------------|
A|--5^--5-5-5--5^--5-5-5--5^--5-5-5---0--13--12--13--16--13--12--|

Verse:
(1st Guitar)
(2nd Guitar rest)
D|--------------------------------------|
A|--20------22------20------19----------|
F|----------------------------------16--|
C|--------------------------------------|
G|--------------------------------------|
D|--------------------------------------|
A|--------------------------------------|

Pre Chorus:
D|--------------------------------------------------|
A|--------------------------------------------------|
F|--------------------------------------------------|
C|--10-10-10-10-10-10-10-10-10-10-10-10-10-10-10-10-|
G|--------------------------------------------------|
D|--8--8--8--8--8--8--8--8--8--8--8--8--8--8--8--8--|
A|--------------------------------------------------|

D|---------------------------------------------------------------------|
A|---------------------------------------------------------------------|
F|---------------------------------------------------------------------|
C|--10-10-10-10-10-10-10-10-10-10-10-10-10-10-10-10-12-12-12-12-12-12--|
G|---------------------------------------------------------------------|
D|--8--8--8--8--8--8--8--8--8--8--8--8--8--8--8--8--10-10-10-10-10-10--|
A|---------------------------------------------------------------------|

Intro:
D|-------------------------------------------0--|
A|-------------------------------------------0--|
F|-------------------------------------------0--|
C|-------------------------------------------0--|
G|-----------------------------------9---9------|
D|-----------------------------------7---8------|
A|--5^--5-5-5--5^--5-5-5--5^--5-5-5--7---8------|

D|---------------------------------------------------------------|
A|---------------------------------------------------------------|
F|---------------------------------------------------------------|
C|---------------------------------------------------------------|
G|---------------------------------------------------------------|
D|---------------------------------------------------------------|
A|--5^--5-5-5--5^--5-5-5--5^--5-5-5---0--13--12--13--16--13--12--|

Pre Chorus:
D|--------------------------------------------------|
A|--------------------------------------------------|
F|--------------------------------------------------|
C|--10-10-10-10-10-10-10-10-10-10-10-10-10-10-10-10-|
G|--------------------------------------------------|
D|--8--8--8--8--8--8--8--8--8--8--8--8--8--8--8--8--|
A|--------------------------------------------------|

D|---------------------------------------------------------------------|
A|---------------------------------------------------------------------|
F|---------------------------------------------------------------------|
C|--10-10-10-10-10-10-10-10-10-10-10-10-10-10-10-10-12-12-12-12-12-12--|
G|---------------------------------------------------------------------|
D|--8--8--8--8--8--8--8--8--8--8--8--8--8--8--8--8--10-10-10-10-10-10--|
A|---------------------------------------------------------------------|

Bridge:
D|--------------------------------------------------------------------|
A|--------------------------------------------------------------------|
F|--------------------------------------------------------------------|
C|--------------------------------------------------------------------|
G|--------------------------------------------------------------------|
D|--2--2--2----------2--2--2----------2--2--2----------2--2--2--------|
A|--0--0--0----5^----0--0--0----5^----0--0--0----5^----0--0--0----5^--|

Breakdown:
(Guitar 1) Play after Guitar 2 bends the 5
D|--------------------------------------------------------------------|
A|----17-------------16-------------15-------------14-----------------|
F|---------20-------------19-------------18-------------17------------|
C|--------------------------------------------------------------------|
G|--------------------------------------------------------------------|
D|--------------------------------------------------------------------|
A|--------------------------------------------------------------------|

Breakdown:
(Guitar 2) Play until the breakdown ends
D|----------------------------------------------------|
A|----------------------------------------------------|
F|----------------------------------------------------|
C|----------------------------------------------------|
G|----------------------------------------------------|
D|----------------------------------------------------|
A|----5^------5^------5^------5^------5^--------------|

Intro:
D|-------------------------------------------0--|
A|-------------------------------------------0--|
F|-------------------------------------------0--|
C|-------------------------------------------0--|
G|-----------------------------------9---9------|
D|-----------------------------------7---8------|
A|--5^--5-5-5--5^--5-5-5--5^--5-5-5--7---8------|

D|---------------------------------------------------------------|
A|---------------------------------------------------------------|
F|---------------------------------------------------------------|
C|---------------------------------------------------------------|
G|---------------------------------------------------------------|
D|---------------------------------------------------------------|
A|--5^--5-5-5--5^--5-5-5--5^--5-5-5---0--13--12--13--16--13--12--|

Outro:
D|------------------------------------------------------------------------|
A|------------------------------------------------------------------------|
F|------------------------------------------------------------------------|
C|--------------5-----------------4-----------------5-----------------7---|
G|--------------7-----------------5-----------------7-----------------8---|
D|--7---7---7---7-----5---5---5---5-----5---5---5---7-----8---8---8---8---|
A|--5---5---5---5-----3---3---3---3-----7---7---7---5-----6---6---6---6---|

D|-------------------------------------------------------|--------|
A|-------------------------------------------------------|--------|
F|-------------------------------------------------------|--------|
C|--------------5-----------------4-----------------2----|--------|
G|--------------7-----------------5-----------------3----|--------|
D|--7---7---7---7-----5---5---5---5-----3---3---3---3----|--2-----| Let this ring out
A|--5---5---5---5-----3---3---3---3-----1---1---1---1----|--0-----|

Suggest correction
Give kudos to tab author, rate the tab!
1 2 3 4 5
comments
print report bad tab
guest
You may want to rate the tab now too:
select rating
Wanna post a correction for this tab? Suggest correction