Oops, an error
Loading. Please wait.

Adidas Bass Tab

version 2
version 2

Whole song

by Korn
2,255 views 3 this week
2 commentsread comments
1 2 3 4 5
3 more votes to show rating
add to favorites
launch autoscroll
font size
0
reset
guitar tuner
Autoscroll
slow
fast
+/-
esc
set tempo
stop
Help us to improve Ultimate-Guitar.com Take our survey!
×
Author
Intro - 4/4 time, 120 tempo, Drop A tuning. (after guitar)

                      1 a2e+ 3 a4e
F---------R--------|------------------|
C---------E--------|------------------|
G---------S--------|------------------| < (2nd measure is main lick)
D---------T--------|------------------|
A-----------0--33--|--0-0000-0-000----| x8
            S  SS     S SSSS S SSS

Verse

   1 a2e +    a e+a   1 2 +  +  4
F------------------|------------------|
C------------------|------------------|
G------------------|------------------|
D--2-2-------------|------------------|
A-----00-1b/--0-010|--1--0-1--0-1-----| x2 (dont repeat 2nd measure)

Main Lick x8
Verse x2

Chorus

F------------------|------------------|
C------------------|------------------|
G------------------|------------------|
D------------------|------------------|
A--0-00--0--0--0-0-|--1-11--1--1--1-1-| x4

Bridge

F------------------|------------------|
C------------------|------------------|
G------------------|------------------|
D------------------|------------------|
A--1-0--X-01-01-10-|--1-0-X-0-1b-2-3-0| x4

Outro x8 (chorus with slaps)

And that's all. Enjoy.
Suggest correction
Give kudos to tab author, rate the tab!
1 2 3 4 5
comments
print report bad tab
2 comments total.
0 reply
BushMasterFlex 41 May 08, 2009 12:20 PM

is this right cause i can never find the proper tab for this damn song!

0 reply
Cb4rabid 606 May 08, 2009 07:56 PM

Of course its right my friend :)

guest
You may want to rate the tab now too:
select rating
Wanna post a correction for this tab? Suggest correction