Oops, an error
Loading. Please wait.

Adidas Tab

version 4
version 4
by Korn
3,245 views 9 this week
no commentswrite comment
1 2 3 4 5
please rate
add to favorites
launch autoscroll
font size
0
reset
how to read this tab
guitar tuner
Autoscroll
slow
fast
+/-
esc
set tempo
stop
Help us to improve Ultimate-Guitar.com Take our survey!
×
20.05.04


Autor:     Sebastian Krueger

Band:      KoRn

Song:      A.D.I.D.A.S.

Album:  Life Is Peachy (1996)

I know, it´s wrong, but it sounds good, too. And It´s my first tab, so get easy on me.

You play it with seven strings. And you need 2 guitars.
It´s all in heavy distortion exept the bridge.
But in heavy distortion the bridge is also the chorus on guitar 2.
It´s a great song and in the way I play it, it´s easy to play too.

If some of you know how to play it 100% correct, tab it and send it to
www.ultimate-guitar.com or www.mxtabs.net  or another site like that.
It just helps other guitarplayers to play songs by the greatest band in the
world.

Intro/Vers:

D|-----------------------------------------------------------------|
A|--0----0----0----0----0----0-------0---0----0---0---0------0-----|
F|--3----3^---3----3----3^---3-------3---3^---3---3---3------3^----|
C|-----------------------------------------------------------------|
G|-----------------------------------------------------------------|
D|-----------------------------------------------------------------|
A|------------------------------------------------------0----------|


Pre-Chorus:

D|-----------------------------------------------------------------|
A|-----------------------------------------------------------------|
F|-----------------------------------------------------------------|
C|-----------------------------------------------------------------|
G|--9—-3/5--------(3—-2-—3—2)--------------------------------------|
D|--9—-3/5--------(3—-2-—3—2)--------------------------------------|
A|--7—-1/3--------(1—-0-—1—0)--------------------------------------|


Chorus Gt. 1:

D|----------------------------0------------------------------------|
A|----------------------------0------------------------------------|
F|-----9--8-----8--9-----9----0------------------------------------|
C|-----x--x-----x--x-----x-----------------------------------------|
G|-----7--6-----6--7----11-----------------------------------------|
D|-----------------------------------------------------------------|
A|--0--------0-----------------------------------------------------|


Chorus/Bridge Gt. 2:

D|-----------------------------------------------------------------|
A|-----------------------------------------------------------------|
F|-------9--8-------^8-------9-------(9--^11)----------------------|
C|-----------------------------------------------------------------|
G|------------------------------9----------------------------------|
D|--7----------7--------8------------------------------------------|
A|-----------------------------------------------------------------|


Breakdown:

D|----------------------------------------------------------------|
A|--0------------------0------------------------------------------|
F|--3------------------3------------------------------------------|
C|----------------------------------------------------------------|
G|-----3--2—---3--2-------3--2----3----6\5/6\5\4------------------|
D|-----3--2—---3--2-------3--2----3----6\5/6\5\4------------------|
A|-----1--0—---1--0-------1--0----1----4\3/4\3\2------------------|


Intro Gt. 1          1x
Intro Gt. 1+2        1x
Intro/Vers Gt. 1+2   4x
Pre-Chorus Gt. 1+2   2x
Intro/Vers Gt. 1+2   4x
Pre-Chorus Gt. 1+2   2x
Chorus Both          4x
Bridge Gt. 2         4x
Breakdown Gt.  1+2   4x
Chorus Both          8x
comments
We did not receive enough feedback on this tab! Please rate:
print report bad tab
1 2 3 4 5
I want to post or [tab]
guest
You may want to rate the tab now too:
select rating
Please do not post tabs as comments. Select "correction" instead!