Oops, an error
Loading. Please wait.

Alive Bass Tab

version 2
version 2

Whole song

Interactive

by Korn
1,117 views 1 this week
no commentswrite comment
1 2 3 4 5
2 more votes to show rating
add to favorites
launch autoscroll
font size
0
reset
guitar tuner
Autoscroll
slow
fast
+/-
esc
set tempo
stop
Help us to improve Ultimate-Guitar.com Take our survey!
×
Author
Difficulty
Tuning
intermediate
A E A D F# B
tuning: drop a

(0:00) Intro x 2
F[------------------------------]
C[------------------------------]
G[------------------------------]
D[------------------------------]
A[-3h1-0-0-3-0-0-3h1-0-0-4h1-0-0]


(0:04) Intro x 2
F[--------------------------------]
C[--------------------------------]
G[--------------------------------] 
D[--------------------------------]
A[-3h1-0-0-4h1-0-0-3h1-0-0-4h1-0-0]


(0:09) Heavy Opener (Slap)
F[----------]    [-----------------]
C[----------]    [-----------------]
G[----------] x1 [-----------------]
D[----------]    [-----------------]
A[--1-0-0-x-]    [-1-0-33331-0-x---]


(0:26) Verse (Slap)
F[-------|------------------|---------]
C[-------|------------------|---------]
G[-------|------------------|---------]
D[-------|------------------|---------]
A[--1-0--|-3-0-33331-0------|-3-2-2-1-] <-- (At end only)


(0:45) "A-LIVE!" (Slap)
F[-------|-------------------]
C[-------|-------------------]
G[-------|-------------------]
D[-------|-------------------]
A[-1-0---|--3-0-1-0-33331-0--]


(1:02) Chorus I
F[------------------------]
C[------------------------]
G[------------------------]
D[-0~--------3-2~---3~----]
A[-----0~--2--------------]


(1:11) Chorus II
F[------------------------]
C[------------------------]
G[------------------------]
D[-0~--------2------------]
A[-----0~--2---3~--2~-----]

(1:20) Chorus I&II

(1:38) "A-LIVE!"

(1:55) Verse

(2:14) Chorus I&II x2

(2:50) Bridge
F[------------------------]
C[------------------------]
G[------------------------]
D[------------------------]
A[--2~--2~--2~--2~--------]

(3:15) Bridge Cont.
F[------------------------] (slap x's for 
C[------------------------] fuller effect -
G[------------------------] idea is to loudly
D[------------------------] mute the string)
A[--2~x--2~x--2~x--2~x----]

(3:33) "A-LIVE!"

(3:51) Chorus I&II x2

(4:26) Outro
F[--------------------------]
C[--------------------------]
G[--------------------------]
D[--------------------------]
A[--4-111-4-111-4-111-4-1100]
Suggest correction
Give kudos to tab author, rate the tab!
1 2 3 4 5
comments
print report bad tab
guest
You may want to rate the tab now too:
select rating
Wanna post a correction for this tab? Suggest correction