Oops, an error
Loading. Please wait.

Alive Tab

version 3
version 3

Whole song

Interactive

by Korn
700 views 3 this week
no commentswrite comment
1 2 3 4 5
3 more votes to show rating
add to favorites
launch autoscroll
font size
0
reset
how to read this tab
guitar tuner
Autoscroll
slow
fast
+/-
esc
set tempo
stop
Help us to improve Ultimate-Guitar.com Take our survey!
×
Difficulty
intermediate
Alive
Korn

This is the 1993 demo version, so it is different from the one on Take a Look in the 
I know Munky and Head used 7 strings but I have a 6 string so I tabbed it out for a 6 
guitar.


Intro    gtr.1,2    gtr.2
|----------------|---------|
|--7-------10--6-|---------|
|----------------|--1/4----|
|----------------|---------|
|----------------|---------|
|----------------|---------|


Verse     gtr.1             gtr.2 w/wah pedal
|--------|------------------|------------|
|--------|------------------|--(7/10/6)--|
|--------|------------------|------------|
|--------|------------------|------------|
|---0-2--|0-2--0-3-0-3-0-2--|------------|
|---0-2--|0-2--0-3-0-3-0-2--|------------|


Pre Chorus      gtr.1,2
|------------|----|-----------|------|
|------------|----|-----------|------|
|------------|----|-----------|------|      Repeat a few times
|------------|----|-----------|------|
|------------|----|-----------|------|
|*00003000000|0101|00003000000|0101*-|


|---------------|---------------|
|---------------|---------------|
|---------------|---------------|     Repeat a few times
|---------------|---------------|
|---------------|---------------|
|*00003000000000|00003000000000*|


Chorus    gtr.1            gtr.2
|----------------------|----------------------|
|----------------------|----------------------|
|----------------------|---2---3---4-3-2---1--|
|---2---3---4-3-2---1--|---2---3---4-3-2---1--|
|---2---3---4-3-2---1--|---0---0---4-3-2---1--|
|---0---0---4-3-2---1--|----------------------|


Bridge  gtr.1,2    gtr.2             gtr.1           gtr.1,2
|--------------|(-------------)|-----------------|-----------|
|--------------|(-------------)|-----------------|-----------|
|--------------|(-------------)|-----------------|-----------|
|--------------|---------------|-----------------|-----------|
|-----5-4-3-0--|---------------|-----4-4-3-3-0---|---3-6-6---|
|-----3-2-1-0--|---------------|-----2-2-1-1-0---|---1-4-4---|

      gtr.1,2                         gtr.1
|---------------------------------|------------|
|---------------------------------|------------|
|---------------------------------|------------|
|---------------------------------|---0-5--0-4-|
|5-4-3-0-3---0-3--0-4-0-4-0-3-----|---0-5--0-4-|
|3-2-1-0-1---0-1--0-2-0-2-0-3-----|------------|


 Before 3rd Verse        gtr.1        gtr.2
|------------|----|-----------|----|--------------------------------|
|------------|----|-----------|----|-7------10-6------7------10-13--|
|------------|----|-----------|----|--------------------------------|
|------------|----|-----------|----|--------------------------------|
|------------|----|-----------|----|--------------------------------|
|*00003000000|0101|00003000000|0101*|-------------------------------|


3rd Verse     gtr.1,2        gtr.2          gtr.1,2
|------------------------|----------|----------------------------------|
|------------------------|----------|----------------------------------|
|------------------------|----------|----------------------------------|
|------------------------|-0-5-0-4--|----------------------------------|
|-0-2---0-2-0-3-0-3-0-2--|-0-5-0-4--|-0-2---0-2-0-3-0-3-0-2---5-4---3-0|
|-0-2---0-2-0-3-0-3-0-2--|----------|-0-2---0-2-0-3-0-3-0-2---3-2---1-0|


Outro   gtr.1
|-----------------|
|-----------------|
|-----------------|       note: guitar 2 does something similar but in the
|-----------------|             same tune as the intro.
|-----------------|
|*000030000000101*|


Key

/= slide from one fret to another

()= use a wah pedal on the strings that are in between parenthasis

*= fast picking


Tabbed by Kornrocker1306@aol.com
Suggest correction
Give kudos to tab author, rate the tab!
1 2 3 4 5
comments
print report bad tab
guest
You may want to rate the tab now too:
select rating
Wanna post a correction for this tab? Suggest correction