Oops, an error
Loading. Please wait.

Alone I Break Ukulele Chords

version 1
version 1

Whole song

Interactive

by Korn
197 views 1 this week
no commentswrite comment
1 2 3 4 5
please rate
add to favorites
launch autoscroll
font size
0
reset
transpose
0
reset
display chords
guitar tuner
Autoscroll
slow
fast
+/-
esc
set tempo
stop
Help us to improve Ultimate-Guitar.com Take our survey!
×
aight yall of course u need to play a 7 stringer to play this song and
it must be tuned a 1 and 1/2 step down this song is fuckin tizite so enjoy

intro. verse gtr 1  palm muted
C#---------------------------------------------------
G#---------------------------------------------------
E ---------------------------------------------------
B ---------------------------------------------------
F#----77---  77------88----777-----77------77-----88-
C#---------------------------------------------------
G#-00--- 00------00-----0-------00------00----00-----

gtr 2 same tuning verse

-----------------------------------------------------
----0---------------------------0--------------------
----------------5------------------------5-----------
-----------------------------------------------------
--5--------3--------0------5---------3----------0----
-----------------------------------------------------
-----------------------------------------------------

gtr 1 (prechorus)

------------------------------------------------------------------------------
------------------------------------------------------------------------------
------------------------------------------------------------------------------
------------------------------------------------------------------------------
------------------------------------------------------------------------------
--------5---5---6---7----------77-----5----------------5--5--6---7-----55--77-
0 0 0-------------------00-------------------0--0--0----------------00--------
 
i will soon be gone....repeat again while gtr 2 plays this

                             these feelings will be gone....
---------------------------------------------------------
---------------------------------------------------------
--4-4-4-4--4--4-4--4--4-4--------------------------------
-------------------------------7--7--7--7--7--7-7-7-7--7-
--2-2-2-2--2--2-2--2--2-2--------------------------------
-------------------------------5--5--5--5--5--5-5-5-5--5-
---------------------------------------------------------
repeat again

chorus

gtr 1
          now i see the times they change...........leaving us it seems....
----------------------------------------------12-------------12------
-12------------------------------------------------------------------
---------------------------------------------------------------------
---------------------------------------------------------------------
---------------------------------------------------------------------
---------------------------------------------------------------------
---------------------------------------------------------------------

    i am hoping i can find    where to leave my hurt behind
12----------------------10-----------9----------------10-------------
---------------------------------------------------------------------
---------------------------------------------------------------------
---------------------------------------------------------------------
---------------------------------------------------------------------
---------------------------------------------------------------------
---------------------------------------------------------------------

    all this shit i seem to take   all alone i seem to break i have lived teh
best i can does this make me not a man
---------------------------------------------------------------------------
---------------------------------------------------------------------------
---------------REPEAT ABOVE AGAIN -----------------------------------------
---------------------------------------------------------------------------
---------------------------------------------------------------------------
---------------------------------------------------------------------------
---------------------------------------------------------------------------

gtr 2 chorus

  now i see the times they change    leaving us it seems so strange
------------------------------------------------------------------
------------------------------------------------------------------
-4--4--4--4--4--4--4-4-4------------------------------------------
--------------------------------------7--7--7--7--7--7--7--7-7-7--
-2--2--2--2--2--2--2-2-2------------------------------------------
--------------------------------------5--5--5--5--5--5--5--5-5-5--
------------------------------------------------------------------

             i am hoping i can find    where to leave my hurt behind
------------------------------------------------------------------
------------------------------------------------------------------
------------------------------------------------------------------
--7--7--7--7--7--7--7--7--7--7----------5--5--5--5--5--5--5-5-5-5-
------------------------------------------------------------------
--5--5--5--5--5--5--5--5--5--5----------3--3--3--3--3--3--3-3-3-3-
------------------------------------------------------------------

all the shit i seem to take all alone i seem to break i have
lived the best i can does this make me not a man 


REPEAT ABOVE AGAIN

solo gtr 1 or 2 does not matter whoever wants to do it hehe

---14------------14--------------------12----11---10h12----------
---12------------12------7-------5-----13----12---10h12----------
---14------------14------4-------4-----12----11------------------
---13------------13----------------------------------------------
-----------------------------------------------------------------
-----------------------------------------------------------------
-----------------------------------------------------------------
repeat twice

gtr 1 or 2 i reccomend the person who did not play the solo play this part

                           more to come......     
-----------------------------------------------------------
-----------------------------------------------------------
-----------------------------------------------------------
-----------------------------------------------------------
-----------------------------------------------------------
-------55-6-7------77---5-------55---6--7----------55---77-
000----------  00----------000--------------00-------------

chorus again and thats the song my friends enjoy!!!
Suggest correction
What's this?
You can suggest a correction to this tab. Community and Mods will review your correction and vote to approve or reject it.
comments
We did not receive enough feedback on this tab! Please rate:
print report bad tab
1 2 3 4 5
guest
You may want to rate the tab now too:
select rating
Please do not post tabs as comments. Select "correction" instead!