Oops, an error
Loading. Please wait.

Alone I Break Tab

version 4
version 4

Whole song

Interactive

by Korn
5,423 views 1 this week
no commentswrite comment
1 2 3 4 5
please rate
add to favorites
launch autoscroll
font size
0
reset
how to read this tab
guitar tuner
Autoscroll
slow
fast
+/-
esc
set tempo
stop
Help us to improve Ultimate-Guitar.com Take our survey!
×
Contributor
Difficulty
Andrew Zara 3,570
novice
Gtr I (G# C# F# B E G# C#) - 'Munky'
Gtr II (G# C# F# B E G# C#) - 'Head'


 Intro
  Moderately Q=78
  B5
 4/4
  Gtr I
  PM--------------------------------------------------------------|
  S S S S S S S S S S S S S S S S   S S S S S S S S S S S S S S S S
|---------------------------------|----------------------------------|
|---------------------------------|----------------------------------|
|---------------------------------|----------------------------------|
|---------------------------------|----------------------------------|
|-------7-7---------7-7-------8-8-|---7---7-7---------7-7-------8-8--|
|---------------------------------|----------------------------------|
|-0-0---------0-0---------0-0-----|-0-----------0-0---------0-0------|


   Verse
    $
    B5
    PM--------------------------------------------------------------|
    S S S S S S S S S S S S S S S S   S S S S S S S S S S S S S S S S
||----------------------------------|-----------------------------------||
||----------------------------------|-----------------------------------||
||o---------------------------------|----------------------------------o||
||----------------------------------|-----------------------------------||
||o-------7-7---------7-7-------8-8-|---7---7-7---------7-7-------8-8--o||
||----------------------------------|-----------------------------------||
||--0-0---------0-0---------0-0-----|-0-----------0-0---------0-0-------||


    PM---------------------------------------------------------------|
    S S S S S  S S S S S S S S S S S   S S S S S S S S S S S S S S S S
||-----------------------------------|-----------------------------------||
||-----------------------------------|-----------------------------------||
||o----------------------------------|----------------------------------o||
||-----------------------------------|-----------------------------------||
||o-------7-7----------7-7-------8-8-|---7---7-7---------7-7-------8-8--o||
||-----------------------------------|-----------------------------------||
||--0-0----------0-0---------0-0-----|-0-----------0-0---------0-0-------||
|
|   Gtr II
|   Q       H.                         Q       H               Q
||-----------------------------------|-----------------------------------||
||----------0------------------------|-----------------------------------||
||o----------------------------------|---------5------------------------o||
||-----------------------------------|-----------------------------------||
||o-5--------------------------------|-3-----------------------0--------o||
||-----------------------------------|-----------------------------------||
||-----------------------------------|-----------------------------------||


    PM--------------------------------------------------------------|
    S S S S S S S S S S S S S S S S   S S S S S S S S S S S S S S S S
||----------------------------------|-----------------------------------||
||----------------------------------|-----------------------------------||
||o---------------------------------|----------------------------------o||
||----------------------------------|-----------------------------------||
||o-------7-7---------7-7-------8-8-|---7---7-7---------7-7-------8-8--o||
||----------------------------------|-----------------------------------||
||--0-0---------0-0---------0-0-----|-0-----------0-0---------0-0-------||
|
|   S S S S S S S E   S S S S S S S   S S S S S S S E   S S S S S S S
||----------------------------------|-----------------------------------||
||----------------------------------|-----------------------------------||
||o---------------------------------|----------------------------------o||
||----------------------------------|-----------------------------------||
||o---------------------------------|----------------------------------o||
||----------5-5-6-7---------7-7---5-|---------5-5-6-7---------7-7---5---||
||--0-0-0-------------0-0-----------|-0-0-0-------------0-0-------------||


   Chorus
    N.C.
    Gtr II
    S S S S E S E S E Q    S S S S E S E S E Q
||-----------------------|-----------------------||
||-----------------------|-----------------------||
||o-4-4-4-4-4-4-4-4-4-4--|----------------------o||
||-----------------------|-7-7-7-7-7-7-7-7-7-7---||
||o-2-2-2-2-2-2-2-2-2-2--|----------------------o||
||-----------------------|-5-5-5-5-5-5-5-5-5-5---||
||-----------------------|-----------------------||


   Verse
    N.C.
    Gtr I
     H.                 Q     Q.          Q.       Q
||-------------------------|-12----------12-----------|
||--12---------------------|--------------------------|
||o------------------------|--------------------------|
||-------------------------|--------------------------|
||o------------------------|--------------------------|
||-------------------------|--------------------------|
||-------------------------|--------------------------|
|
|   Gtr II
|    S  S S S E S E S E Q     S  S S S E  S  E S E Q
||-------------------------|--------------------------|
||-------------------------|--------------------------|
||o--4--4-4-4-4-4-4-4-4-4--|--7--7-7-7-7--7--7-7-7-7--|
||-------------------------|--------------------------|
||o--2--2-2-2-2-2-2-2-2-2--|--5--5-5-5-5--5--5-5-5-5--|
||-------------------------|--------------------------|
||-------------------------|--------------------------|


                                               D.S.
   H.                 Q     Q.         Q.        Q
|-12---------------------|-10----------9--------10---||
|------------------------|---------------------------||
|------------------------|--------------------------o||
|------------------------|---------------------------||
|------------------------|--------------------------o||
|------------------------|---------------------------||
|------------------------|---------------------------||
|
|  S  S S S E S E S E Q     S  S S S E S  E S E  Q
|------------------------|---------------------------||
|------------------------|---------------------------||
|------------------------|--------------------------o||
|--7--7-7-7-7-7-7-7-7-7--|--5--5-5-5-5-5--5-5-5--5---||
|------------------------|--------------------------o||
|--5--5-5-5-5-5-5-5-5-5--|--3--3-3-3-3-3--3-3-3--3---||
|------------------------|---------------------------||


   Bridge
    A#7/D          Gm7/Eb   A#5  Eb5/Bb          B/F#  A#/F
     H.       Q     H    Q  Q    H           Q    q     H.      Q    4x
||--14-------14--|-14----------|-----------------12--|-11------------||
||--12-------12--|-12-------7--|-5---------------13--|-12------------||
||o-14-------14--|-13-------4--|-4---------------12--|-11-----------o||
||--13-------13--|-14----------|---------------------|---------------||
||o--------------|-------------|---------------------|--------------o||
||---------------|-------------|---------------------|---------------||
||---------------|-------------|---------------------|---------------||
|
|    W              W            Q   S  E.  +H          W            4x
||---------------|-------------|----10s12--(12)------|---------------||
||---------------|-------------|----10s12--(12)------|---------------||
||o--------------|-------------|---------------------|--------------o||
||---------------|-------------|---------------------|---------------||
||o--------------|-------------|---------------------|--------------o||
||---------------|-------------|---------------------|---------------||
||---------------|-------------|---------------------|---------------||


  N.C.
  Gtr II
  S S S S S S S E S S S S S S S   S S S S S S S E S S S S S S S
|-------------------------------|--------------------------------|
|-------------------------------|--------------------------------|
|-------------------------------|--------------------------------|
|-------------------------------|--------------------------------|
|-------------------------------|--------------------------------|
|---------5-5-6-7-------7-7---5-|---------5-5-6-7-------7-7---5--|
|-0-0-0-----------0-0-----------|-0-0-0-----------0-0------------|


   Outro
    N.C.
    Gtr I
     H.                 Q     Q.          Q.       Q
||-------------------------|-12----------12-----------|
||--12---------------------|--------------------------|
||o------------------------|--------------------------|
||-------------------------|--------------------------|
||o------------------------|--------------------------|
||-------------------------|--------------------------|
||-------------------------|--------------------------|
|
|   Gtr II
|    S  S S S E S E S E Q     S  S S S E  S  E S E Q
||-------------------------|--------------------------|
||-------------------------|--------------------------|
||o--4--4-4-4-4-4-4-4-4-4--|--7--7-7-7-7--7--7-7-7-7--|
||-------------------------|--------------------------|
||o--2--2-2-2-2-2-2-2-2-2--|--5--5-5-5-5--5--5-5-5-5--|
||-------------------------|--------------------------|
||-------------------------|--------------------------|


   H.                 Q     Q.         Q.        Q   4x
|-12---------------------|-10----------9--------10---||
|------------------------|---------------------------||
|------------------------|--------------------------o||
|------------------------|---------------------------||
|------------------------|--------------------------o||
|------------------------|---------------------------||
|------------------------|---------------------------||
|
|  S  S S S E S E S E Q     S  S S S E S  E S E  Q   4x
|------------------------|---------------------------||
|------------------------|---------------------------||
|------------------------|--------------------------o||
|--7--7-7-7-7-7-7-7-7-7--|--5--5-5-5-5-5--5-5-5--5---||
|------------------------|--------------------------o||
|--5--5-5-5-5-5-5-5-5-5--|--3--3-3-3-3-3--3-3-3--3---||
|------------------------|---------------------------||




--------------------------------------------------------------------------------


Duration Legend
---------------
W - whole; H - half; Q - quarter; E - 8th; S - 16th; T - 32nd; X - 64th; a - acciaccatura
+ - note tied to previous; . - note dotted; .. - note double dotted
Uncapitalized letters represent notes that are staccato (1/2 duration)
Irregular groupings are notated above the duration line
Duration letters will always appear directly above the note/fret number it represents the
duration for.  Duration letters with no fret number below them represent rests.  Multi-
bar rests are notated in the form Wxn, where n is the number of bars to rest for.  Low
melody durations appear below the staff

Tablature Legend
----------------
 h   - hammer-on
 p   - pull-off
 b   - bend
 pb  - pre-bend
 r   - bend release (if no number after the r, then release immediately)
 /\  - slide into or out of (from/to "nowhere")
 s   - legato slide
 S   - shift slide
 - natural harmonic
[n]  - artificial harmonic
n(n) - tapped harmonic
 ~   - vibrato
 tr  - trill
 T   - tap
 TP  - trem. picking
 PM  - palm muting
\n/  - tremolo bar dip; n = amount to dip
 \n  - tremolo bar down
 n/  - tremolo bar up
/n\  - tremolo bar inverted dip
 =   - hold bend; also acts as connecting device for hammers/pulls
 <> - volume swell (louder/softer)
 x   - on rhythm slash represents muted slash
 o   - on rhythm slash represents single note slash

Misc Legend
-----------
 |  - bar
||  - double bar
||o - repeat start
o|| - repeat end
*|  - double bar (ending)
 :  - bar (freetime)
 $  - Segno
 &  - Coda
Tempo markers -  = BPM(8/16=s8/s16), where s8 = swing 8ths, s16 = swing 16ths

Suggest correction new What's this?
You can suggest a correction to this tab. Community and Mods will review your correction and vote to approve or reject it.
comments
We did not receive enough feedback on this tab! Please rate:
print report bad tab
1 2 3 4 5
I want to post or [tab]
guest
You may want to rate the tab now too:
select rating
Please do not post tabs as comments. Select "correction" instead!