Oops, an error
Loading. Please wait.

Another Brick In The Wall Tab

version 1
version 1

Whole song

Interactive

by Korn
59,828 views 33 this week
14 commentsread comments
1 2 3 4 5
worth learning
x 24
add to favorites
launch autoscroll
font size
0
reset
how to read this tab
guitar tuner
Tab Pro tools
  • play this tab
  • loop segment
  • change instrument
  • show fretboard
  • metronome
×
Best way to learn
"Another Brick In The Wall"
Autoscroll
slow
fast
+/-
esc
set tempo
stop
Contributor
Band- Korn
Album- Greatest Hits Vol. 1
Song- Another Brick In The Wall Pt. 1, 2, & 3(Pink Floyd Cover)
Tuning- Drop C: CGCfad
Guitar 1: Head
Guitar 2: Munky

Intro/Guitar 2: Munky
|--------------------------------------------|
|--------------------------------------------|
|--------------------------------------------|
|--------------------------------------------|
|--------------------------------------------|
|-555555555555555555555555555555555555555555-|
P.M.........................................

|----------------------------|
|----------------------------|
|----------------------------|
|----------------------------|
|----------------------------|
|-11111111111111111111111111-|
P.M.........................

|-----------------------------------------------------|
|----------------x2-----------------------------------|
|-----------------------------------------------------|
|-----------------------------------------------------|
|-----------------------------------------------------|
|-555555555550000000000022222222222222222222222222222-|
P.M.................................................. 

Guitar 2: Head/Clean
|--------------------|
|---------------x2---|
|--------------------|
|-5~-----0~-----2~---|
|-5~-----0~-----2~---|
|-5~-----0~-----2~---|

Guitars 1&2: Head & Munky/Heavy Distortion
|----------------------|
|---------------x14----|
|----------------------|
|-2----222-----0-2---2-|
|-2----222-----0-2---2-|
|-2----222-----0-2---2-|

Guitar 1: Head
|---------------------------------------------|
|---------------------------------------------|
|---------------------------------------------|
|-7777777777777777777777777777777777777777777-|
|-7777777777777777777777777777777777777777777-|
|-7777777777777777777777777777777777777777777-|

Guitar 2: Munky
|---------------------------------------------|
|---------------------------------------------|
|-2222222222222222222222222222222222222222222-|
|---------------------------------------------|
|---------------------------------------------|
|---------------------------------------------|

|------------|
|------------|
|------------|
|-0---1---2--|
|-0---1---2--|
|-0---1---2--|

|----------------------|-----------------------|
|---------------x2-----|                       |
|----------------------|                       |
|-2----222-----0-2---2-|                       |
|-2----222-----0-2---2-|                       |
|-2----222-----0-2---2-|                       |-Repeat this 2 times
                                               |
|------------------------|                     |
|------------------------|                     |
|------------------------|                     |
|-5~----0~-----0---1---2-|                     |
|-5~----0~-----0---1---2-|                     |
|-5~----0~-----0---1---2-|---------------------|       

|----------------------|
|---------------x12----|
|----------------------|
|-2----222----0-2---2--|
|-2----222----0-2---2--|
|-2----222----0-2---2--|

Guitar 1: Head
|---------------------------------------|
|---------------------------------------|
|---------------------------------------|
|-777777777777777777777777777777777777--|
|-777777777777777777777777777777777777--|
|-777777777777777777777777777777777777--|

Guitar 2: Munky
|---------------------------------------|
|---------------------------------------|
|-222222222222222222222222222222222222--|
|---------------------------------------|
|---------------------------------------|
|---------------------------------------|

|-----------|
|-----------|
|-----------|
|-0---1---2-|
|-0---1---2-|
|-0---1---2-|

|----------------------|----------------------|
|---------------x2-----|                      |
|----------------------|                      |
|-2----222----0-2---2--|                      |
|-2----222----0-2---2--|                      |
|-2----222----0-2---2--|                      |- Repeat this 2 times
                                              |
|-----------------------|                     |
|-----------------------|                     |
|-----------------------|                     |
|-5~----0~----0---1---2-|                     |
|-5~----0~----0---1---2-|                     |
|-5~----0~----0---1---2-|---------------------|  

Guitar 2: Munky
|----------------------|
|-------x32------------|
|----------------------|
|-2----222----0-2---2--|
|-2----222----0-2---2--|
|-2----222----0-2---2--|

Guitar 1: Head/Solo
|--------------------12-----------------|
|-15p12----12-----------15(17)-12-12-12-|
|-------14----14(16)-----------12-12-12-|
|---------------------------------------|
|---------------------------------------|
|---------------------------------------|

|---------------------------------|
|-14(16)-14(17)14-15p12-----------|
|-----------------------14-14(16)-|
|---------------------------------|
|---------------------------------|
|---------------------------------|

|---------------------------------------------------------|
|------------------12----12--12----12--12----12--14--12---|
|-12p11-11------14----12---12---12---12---12---12--14--12-|
|----12-12/14---14----14--------14--------14--------------|
|---------------------------------------------------------|
|---------------------------------------------------------|

|-------15(17)-15-15----------------------------|
|-----x--------------15(17)-(19)-(20)-(15)-(17)-|
|---x-------------------------------------------|
|-x---------------------------------------------|
|-----------------------------------------------|
|-----------------------------------------------|

|---------12----------------------------------------------------------------------------|
|-------12--15p12-----------------------------------------------------------------------|
|-14(16)---------14-14(16)14p12-14p12---12----------------------------------------------|
|-------------------------------------14---14--14p12---12-------------------------------|
|----------------------------------------------------14--14/12p10-12p10-10--------------|
|--------------------------------------------------------------------12-10-12---12-12/4-|

|------------------------------------------|
|------------------------------------------|
|---------12p11-------------------------12-|
|------12------14-14p12----8/12-14-14p12---|
|-10/14------------------14----------------|
|------------------------------------------|

|-------------------------17(19)15------------15-17v(19)17-----|
|-15(17)-15(17)-(19)-----x--------17--11/15-17--------------17-|
|----------------------x---------------------------------------|
|--------------------x-----------------------------------------|
|--------------------------------------------------------------|
|--------------------------------------------------------------|

|-19-19--21(23)-21p19-21p19------------------|
|---------------------------12-12-12/14\12---|
|-----------------------------------------14-|
|--------------------------------------------|
|--------------------------------------------|
|--------------------------------------------|

|-----------------x-x--x--------------------------|
|-9/13----12-10---x-x--13p10----x-x---------------|
|-9/13----12-10---x-x--x--------x-x---------------|
|------12---------x-x--------12-x-x---5-5p3---3---|
|-------------------------------x-x---------5---5-|
|-------------------------------------------------|

|---------------|
|----------x3---|
|---------------|
|-2~----0---5---|
|-2~----0---5---|
|-2~----0---5---|

|--------|
|----x1--|
|--------|
|-2~-----|
|-2~-----|
|-2~-----|

Guitar 1: Head
|----------------------------------------|
|----------------------------------------|
|----------------------------------------|
|-77777777777777777777777777777777777777-|
|-77777777777777777777777777777777777777-|
|-77777777777777777777777777777777777777-|

Guitar 2: Munky
|----------------------------------------|
|----------------------------------------|
|-22222222222222222222222222222222222222-|
|----------------------------------------|
|----------------------------------------|
|----------------------------------------|

Outro
|-------|
|-------|
|-------|
|-2~----|
|-2~----|
|-2~----|

|-------------|
|-------------|
|-------------|
|-x---x---2~--|
|-x---x---2~--|
|-x---x---2~--|

|-------------------------|
|--------------x2---------|
|-------------------------|
|-5~----0~----0---1---2~--|
|-5~----0~----0---1---2~--|
|-5~----0~----0---1---2~--|

That's it. HAVE FUN!!!!
comments
print report bad tab
14 comments total. Showing first comments.
+1 reply
lyingfromyou118 wrote on January 23 2005, 12:00 am

This tab is really off. Munky and Head play in ADGCFAD on 7-strings. The solo is also off quite a bit.

0 reply
Andrew Zara wrote on February 22 2005, 12:00 am

the dont even use the 7th string so whats the point of adding that extra line in if they dont even use it.

0 reply
korn fan #1 wrote on February 28 2005, 12:00 am

your tab is off just because of the tuning because they dont use deop C

I want to post or [tab]
guest
You may want to rate the tab now too:
select rating
Please do not post tabs as comments. Select "correction" instead!