Oops, an error
Loading. Please wait.

Another Brick In The Wall Bass Tab

version 2
version 2

Whole song

Interactive

by Korn
2,978 views 15 this week
1 commentread comment
1 2 3 4 5
please rate
add to favorites
launch autoscroll
font size
0
reset
guitar tuner
Autoscroll
slow
fast
+/-
esc
set tempo
stop
Help us to improve Ultimate-Guitar.com Take our survey!
×
Author
Difficulty
intermediate
KORN
ANOTHER BRICK IN THE WALL(LIVE VERSION)
5 STRING BASS
TUNING: A,D,G,C,F
PLAY ALL NOTES WITH ''SLAPPING'' STYLE EXCEPT WHERE INDICATED

INTRO: YOU CAN PLAY YHIS

DADDY IS FOUND...LEAVING JUST A...
F-----|
C-----|
G-----|
D-----|
A--5--|

THAT YOU WERE A...FOR ME
F----|
C----|
G----|
D--5-|
A----|

ALL IN ALL IS JUST...
F--------|
C--------|
G--------|
D--3-----|
A----3-5-|

VERSES/ON CHORUS(AFTER ''ALL IN ALL''...ON ''ANOTHER BRICK'')
F--------------------|
C--------------------|
G--------------------| REPEAT SEQUENCE WHEN NECESSARY
D--------------------|
A--5-5-3-5-5-5-5-0-3-|

BEFORE AND IN ''HEY TEACHERS''
F----------|
C----------|
G----------| REPEAT AS MANY TIMES AS NECESSARY
D--5---5-5-|
A----------|

ALL IN ALL...
F----------------|
C----------------|
G----------------|
D--3--3-3--------|
A---------3--3-3-|

ON GUITAR SOLO DON'T PLAY ''SLAPPING'' STYLE
F--------------------|
C--------------------|
G--------------------| REPEAT SEQUENCE WHEN NECESSARY
D--------------------|
A--5-5-3-5-5-5-5-0-3-|

RETURN TO ''SLAPPING'' STYLE

I DON'T NEED...(AFTER GUITAR SOLO)[LISTEN SONG FOR TIMING]
F----------------|
C----------------|
G----------------| REPEAT SEQUENCE AS MANY TIMES AS NECESSARY
D--------3-3-3-2-|
A--5-5-5---------|

AFTER ''DON'T THINK I NEED...''
F-----------------|
C-----------------|
G-----------------|
D--5--5-5--5--5-5-|
A-----------------|

AFTER ''NO DON'T THINK...''
F----------|
C----------|
G----------|
D--------2-|
A--5-5-5---|

''ALL IN ALL..''
F------------|
C------------|
G------------|
D--3-3-------|
A------3-3-5-|

AFTER THAT PLAY THIS WITH A VIOLENT SLAPPING
F----------------|
C----------------|
G----------------|
D----------------|
A--5-5-5-0-0-3-3-|

ENDING ''ALL IN ALL...''
F----------------|
C----------------|
G----------------|
D--3-3-----------|
A------3-3-0-3-5-|

OUTRO ''GOODBYE...''
F----------------------------|
C------------8---8-----------|
G----8---8-----------8---2---| REPEAT SEQUENCE TROUGHOUT THE OUTRO
D----------5---5-------------|
A--5---5-----------5---0---5-|
Suggest correction
What's this?
You can suggest a correction to this tab. Community and Mods will review your correction and vote to approve or reject it.
comments
We did not receive enough feedback on this tab! Please rate:
print report bad tab
1 2 3 4 5
1 comment total.
0 reply
skate131499 11 wrote on August 14 2016, 03:49 pm

better tab than ver 1

guest
You may want to rate the tab now too:
select rating
Please do not post tabs as comments. Select "correction" instead!