Oops, an error
Loading. Please wait.

Another Brick In The Wall Tab

version 2
version 2

Whole song

Interactive

by Korn
9,978 views 1 this week
3 commentsread comments
1 2 3 4 5
accurate
x 7
add to favorites
launch autoscroll
font size
0
reset
how to read this tab
guitar tuner
Tab Pro tools
  • play this tab
  • loop segment
  • change instrument
  • show fretboard
  • metronome
×
Best way to learn
"Another Brick In The Wall"
Autoscroll
slow
fast
+/-
esc
set tempo
stop
Contributor
Band- Korn
Song- Another Brick In The Wall
Album- Greatest Hits Vol.1

Tuning: Full Step Down (A D G C F A D)

Part 1
D|----------------------------------------------------------------||
A|----------------------------------------------------------------||
F|----------------------------------------------------------------||
C|----------------------------------------------------------------||
G|-7~-------------------------------------------------------------||
D|----------------------------------------------------------------||
A|-5~-------------------------------------------------------------||
Fades in with wierd sound effect

D|----------------------------------------------------------------||
A|----------------------------------------------------------------||
F|----------------------------------------------------------------||
C|----------------------------------------------------------------||
G|----------------------------------------------------------------||
D|----------------------------------------------------------------||
A|-55555555555555555555...----------------------------------------||
PM |---------------------|
Munky plays this bit when Jon comes in.

D|----------------------------------------------------------------||
A|----------------------------------------------------------------||
F|----------------------------------------------------------------||
C|----------------------------------------------------------------||
G|----------------------------------------------------------------||
D|-555555555555555555555...---------------------------------------||
A|----------------------------------------------------------------||
PM |---------------------|
Played when jon sings,"daddy what u leave behind for me" quietly


D|----------------------------------------------------------------||
A|----------------------------------------------------------------||
F|----------------------------------------------------------------||
C|----------------------------------------------------------------||
G|----------------------------------------------------------------||
D|----------------------------------------------------------------||
A|-55555555555555555555...----------------------------------------||
PM |---------------------|
then back to that.
D|----------------------------------------------------------------||
A|----------------------------------------------------------------||
F|----------------------------------------------------------------||
C|----------------------------------------------------------------||
G|----------------------------------------------------------------||
D|-33333333---------0000000000000000------------------------------||
A|---------33333333-----------------------------------------------||
PM |-------------------------------|
"All In All It Was Just A Brick In the Wall"

Part 2
D|----------------|--------------------|------------------||
A|----------------|--------------------|------------------||
F|----------------|--------------------|------------------||
C|----------------|-0--2-3-2~--0-2-3-2-|-0--2-3-2--0-2-3~-||
G|-7--7--7--5/7-7-|--------------------|------------------||
D|-7--7--7--5/7-7-|--------------------|------------------||
A|-5--5--5--3/5-5-|--------------------|------------------||
Munky plays this x8 with head playing this when jon sings. 




D|---------------|9999999999999999||
A|---------------|1010101010101010||
F|---------------|9999999999999999||
C|777777777777777|----------------||
G|777777777777777|----------------||
D|555555555555555|----------------||
A|---------------|----------------||
Munkys Bit        Heads Bit
"Hey! Teachers! leave us kids alone!"

D|----------------| 
A|----------------|
F|----------------|
C|----------------|
G|-7--7--7--5/7-7-|
D|-7--7--7--5/7-7-|
A|-5--5--5--3/5-5-| x2



D|----------------|----------------|
A|----------------|----------------|
F|----------------|----------------|
C|-5~-------------|----------------|
G|-5~-------------|-5~---------3--2|
D|-3~-------------|-5~---------3--2|
A|----------------|-3~---------1--0|

D|----------------|
A|----------------|
F|----------------|
C|----------------|
G|-7--7--7--5/7-7-|
D|-7--7--7--5/7-7-|
A|-5--5--5--3/5-5-|x 2

D|----------------|----------------|
A|----------------|----------------|
F|----------------|----------------|
C|-5~-------------|----------------|
G|-5~-------------|-5~---------3--2|
D|-3~-------------|-5~---------3--2|
A|----------------|-3~---------1--0|

D|----------------|
A|----------------|
F|----------------|
C|----------------|
G|-7--------------|
D|-7--------------|
A|-5--------------|



D|----------------|----------------|
A|----------------|----------------|
F|----------------|----------------|
C|----------------|----------------|
G|----------------|----------------|
D|----------------|----------------|
A|----------------|----------------|
Drums

then repeat again up the last 5 powerchord then just play the main riff again.
Main Riff is now played alot, not sure how many times. This is the rythem for the solo;

D|--------------------12---------------------|
A|-15p12----12-----------15(17)--12-12-12----|
F|-------14----14(16)------------12-12-12----|
C|-------------------------------------------|
G|-------------------------------------------|
D|-------------------------------------------|
A|-------------------------------------------|

D|-------------------------------------------|
A|--14(16)-14(17)14-15p12--------------------|
F|--------------------------14-14(16)--------|
C|-------------------------------------------|
G|-------------------------------------------|
D|-------------------------------------------|
A|-------------------------------------------|

D|----------------------------------------------------|
A|-------------------12---12-12---12-12---12-14-12----|
F|-12p11--11------14---12---12-12---12-12---12-14-12--|
C|-----12-12/14---14---14------14------14-------------|
G|----------------------------------------------------|
D|----------------------------------------------------|
A|----------------------------------------------------|

D|-------15(17)-15-15-------------------------------|
A|-----x--------------15(17)(19)(20)(15)(17)--------|
F|---x----------------------------------------------|
C|-x------------------------------------------------|
G|--------------------------------------------------|
D|--------------------------------------------------|
A|--------------------------------------------------|

D|---------12--------------------------------------------------------------------------------|
A|-------12--15p12---------------------------------------------------------------------------|
F|14(16)----------14-14(16)14p12-14p12--12---------------------------------------------------|
C|------------------------------------14--14--14p12---12-------------------------------------|
G|--------------------------------------------------14--14/12p10-12p10-10--------------------|
D|------------------------------------------------------------------12-10-12---12-12/4-------|
A|-------------------------------------------------------------------------------------------|

D|------------------------------------------------|
A|------------------------------------------------|
F|---------12p11---------------------------12-----|
C|------12------14-14p12----8/12-14-14p12---------|
G|-10/14------------------14----------------------|
D|------------------------------------------------|
A|------------------------------------------------|

D|----------------------17(19)15------------15-17v(19)17-----|
A|-15(17)-15(17)(19)---x--------17--11/15-17--------------17-|
D|--------------------x--------------------------------------|
C|-------------------x---------------------------------------|
G|-----------------------------------------------------------|
D|-----------------------------------------------------------|
A|-----------------------------------------------------------|

                   
D|-19-19--21(23)-21p19-21p19--------------------|
A|---------------------------12-12-12/14\12-----|
F|------------------------------------------14--|
C|----------------------------------------------|
G|----------------------------------------------|
D|----------------------------------------------|
A|----------------------------------------------|


D|------------------x-x--x----------------------------|
A|--9/13----12-10---x-x--13p10-----x-x----------------|
F|--9/13----12-10---x-x--x---------x-x----------------|
C|-------12---------x-x--------12--x-x---5-5p3---3----|
G|---------------------------------x-x---------5---5--|
D|----------------------------------------------------|
A|----------------------------------------------------|

Part 3



                                   1.2.3  
D|----------------|----------------|----------------|----------------||
A|----------------|----------------|----------------|----------------||
F|----------------|----------------|----------------|----------------||
C|-2~-------------|(2)-------------|-5~-------------|(5)-------------||
G|-2~-------------|(2)-------------|-5~-------------|(5)-------------||
D|-0~-------------|(0)-------------|-3~-------------|(3)-------------||
A|----------------|----------------|----------------|----------------||
"i odnt need no arms around me" bit

D|---------------|9999999999999999||
A|---------------|1010101010101010||
F|---------------|9999999999999999||
C|777777777777777|----------------||
G|777777777777777|----------------||
D|555555555555555|----------------||
A|---------------|----------------||
Munkys Bit        Heads Bit



D|----------------|-----------------|-----------------|---------------||
A|----------------|-----------------|-0---------------|-(0)-----------||
F|----------------|-----------------|-0---------------|-(0)-----------||
C|----------------|-----------------|-----------------|---------------||
G|-7~-------------|-(7)-------------|-7---------------|-(7)-----------||
D|-7~-------------|-(7)-------------|-7---------------|-(7)-----------||
A|-5~-------------|-(5)-------------|-5---------------|-(5)-----------||

D|----------------|----------------|
A|----------------|----------------|
F|----------------|----------------|
C|-5~-------------|----------------|
G|-5~-------------|-5~---------3--2|
D|-3~-------------|-5~---------3--2|
A|----------------|-3~---------1--0|

D|----------------|
A|----------------|
F|----------------|
C|----------------|
G|-7--------------|
D|-7--------------|
A|-5--------------| x2
comments
print report bad tab
3 comments total.
0 reply
BlackReaper123 wrote on October 28 2006, 03:03 pm

this one is better than they other one...

0 reply
albinokrikit wrote on January 22 2007, 01:05 pm

i only have 1 problem the part that goes
D 333333333 0000000000
A 3333333333
is (as far as i no)
G 7 1 4
D 5 0 2
u can also do this higher up on the A n i tried it each way n this sounds best other than that its a great tab

0 reply
GNR Rule wrote on April 1 2007, 07:05 pm

Well atleast this is in the right tuning. A much better effort.

I want to post or [tab]
guest
You may want to rate the tab now too:
select rating
Please do not post tabs as comments. Select "correction" instead!