Oops, an error
Loading. Please wait.

Appears Tab

by Korn
430 views 3 this week
no commentswrite comment
1 2 3 4 5
please rate
add to favorites
launch autoscroll
font size
0
reset
how to read this tab
guitar tuner
Autoscroll
slow
fast
+/-
esc
set tempo
stop
Help us to improve Ultimate-Guitar.com Take our survey!
×
Contributor
Korn - See You On The Other Side - Appears

Tabbed By: FRr3AkOnALEaSh (smokin_05@hotmail.com)
Tuning: 7 String Tuned Low to High (A D G C F a d)

Vocal: Jonathan Houseman Davis 'Hiv'
Guitar: James Randal Shaffer 'Munky'
Bass: Reginald Arvizu 'Fieldy
Drums: David Silveria

Riff 1 (Intro)
D|--------------------------------------|
A|--------------------------------------| This part is filled 
F|--------------------------------------| with effects, so I
C|--------------------------------------| did my best to figure 
G|--------------------------------------| it out.
D|--------------------------------------|
A|--5555h8p5h8p5-55h8p5-55-6-6-6-6-8\~--|

Riff 2 (Verse)
D|-----------------------------------------|
A|-----------------------------------------|
F|-----------------------------------------|
C|-----------------------------------------|
G|--777-777-777-777--888-888--101010--888--|
D|--777-777-777-777--888-888--101010--888--|
A|--555-555-555-555--666-666---8-8-8--666--|

Riff 3 (Verse)(Guitar 1)
D|---------------------------------------|
A|---------------------------------------|
F|---------------------------------------|
C|---------------------------------------|
G|--7~-------7~-------8~-------10~-------|
D|--7~-------7~-------8~-------10~-------|
A|--5~-------5~-------6~--------8~-------|
    .        .        .         .         PM

Riff 4 (Verse)(Guitar 2)
D|---------------------------------------|
A|---------------------------------------|
F|-------9--------9-------10---------12--|
C|-------x--------x--------x---------xx--|
G|-------7--------7--------8---------10--|
D|---------------------------------------|
A|---------------------------------------|

Riff 5 (Verse/Pre-Chorus)(Guitar 2)
D|----------------------------|
A|--11-11-11\---11-11-11-11\--|
F|---x--x--x\----x--x--x--x\--|
C|---8--8--8\----8--8--8--8\--|
G|----------------------------|
D|----------------------------|
A|----------------------------|

Riff 6 (Verse/Pre-Chorus)(Guitar 1)
D|-----------------------|
A|-----------------------|
F|-----------------------|
C|-----------------------|
G|-----------------------|
D|--7777-7777-7777-7777--|
A|--5555-5555-5555-5555--|
    .... .... .... ....   PM

Riff 7 (Chorus/Outro)(Guitar 1)
D|----------------------|----------------------|
A|----------------------|----------------------|
F|----------------------|----------------------|
C|----------------------|----------------------|
G|--777-777-888-101010--|--777-777-888-101010--|
D|--777-777-888-101010--|--777-777-888-101010--|
A|--555-555-666--8-8-8--|--555-555-666--8-8-8--|

Riff 8 (Chorus/Outro)(Guitar 2)
D|----------------------|----------------------|
A|--------------11\-----|---------------8\-----|
F|---------------x\-----|---------------x\-----|
C|---------------8\-----|---------------5\-----|
G|----------------------|----------------------|
D|----------------------|----------------------|
A|----------------------|----------------------|

Riff 9 (Pre-Verse/Fill)(Guitar 1)
D|----------------------------------------|
A|----------------------------------------|
F|----------------------------------------|
C|----------------------------------------|
G|----------------------------------------|
D|--77-77---77-77---88-88---1010-10\8-8\--|
A|--55-55---55-55---66-66----8-8--8\6-6\--|
    .. ..   .. ..   .. ..    . .  . . .    PM

Riff 10 (Bridge)(Guitar 1)
D|--------------------|----------|
A|--------------------|----------|
F|--------------------|----------|
C|--------------------|--9~--7~--|
G|--7~---5----7~---7--|----------|
D|--7~--------7~------|----------|
A|--5~--------5~------|----------|
    .         .                   PM

Riff 11 (Bridge)(Guitar 1)
D|--------------------|------------------|
A|--------------------|------------------|
F|--------------------|------------------|
C|--------------------|--9~--7~--3~--6~--|
G|--7~---5----7~---7--|------------------|
D|--7~--------7~------|------------------|
A|--5~--------5~------|------------------|
    .         .                           PM

Riff 12 (Bridge)(Guitar 1)
D|--------------------|-----------------------|
A|--------------------|-----------------------|
F|--------------------|-----------------------|
C|--------------------|--9~--7~--3~--6-3-6-3--|
G|--7~---7----7~---7--|-----------------------|
D|--7~--------7~------|-----------------------|
A|--5~--------5~------|-----------------------|
    .         .                                PM

NOTE: Listen to the song to structure out each riff.
Suggest correction What's this?
You can suggest a correction to this tab. Community and Mods will review your correction and vote to approve or reject it.
comments
We did not receive enough feedback on this tab! Please rate:
print report bad tab
1 2 3 4 5
I want to post or [tab]
guest
You may want to rate the tab now too:
select rating
Please do not post tabs as comments. Select "correction" instead!