Oops, an error
Loading. Please wait.

Ass Itch Tab

version 3
version 3

Whole song

Interactive

by Korn
474 views 1 this week
no commentswrite comment
1 2 3 4 5
please rate
add to favorites
launch autoscroll
font size
0
reset
how to read this tab
guitar tuner
Autoscroll
slow
fast
+/-
esc
set tempo
stop
Help us to improve Ultimate-Guitar.com Take our survey!
×
Author
Difficulty
Andrew Zara 3,653
novice
Band - Korn
Song - Ass Itch
Album - Life Is Peachy 
Tuning - A,D,G,C,F,A,D

Intro - Guitar 1
|-----------------------------------------------------|
|-------0-0-0-0-0-----------------0-0-0-0-0-----------|
|-------4-4-4-4-4-----------------4-4-4-4-4-----------|
|-----------------------------------------------------|
|-----------------0-1-1-1-1-----------------0-1-1-1-1-|
|-2-2-----------------------2-2-----------------------|
|-0-0-----------------------0-0-----------------------|

Guitar 2
|---------------------------------------------------------|
|---------------------------------0-0-0-0-0--/12-11-11-11-|
|---------------------------------4-4-4-4-4---x--x--x--x--|
|--------------------------------------------/8--8--8--8--|
|---------------------------------------------------------|
|---------------------------------------------------------|
|---------------------------------------------------------|

Verse - Guitar 1
|-----------------------------------------------------|
|-------0-0-0-0-0-----------------0-0-0-0-0-----------|
|-------4-4-4-4-4-----------------4-4-4-4-4-----------|
|-----------------------------------------------------|
|-----------------0-1-1-1-1-----------------0-1-1-1-1-|
|-2-2-----------------------2-2-----------------------|
|-0-0-----------------------0-0-----------------------|

Guitar 2
|------------------------------------------------------------|
|-------0-0-0-0-0--/11-11-11-11------0-0-0-0-0--/11-11-11-11-|
|-------4-4-4-4-4---x--x--x--x-------4-4-4-4-4---x--x--x--x--|
|------------------/8--8--8--8------------------/8--8--8--8--|
|------------------------------------------------------------|
|-2-2---------------------------2-2--------------------------|
|-0-0---------------------------0-0--------------------------|

Pre-Chorus - Guitars 1
|---------------------------------------------|
|---------------------------------------------|
|-4-4-4-4-5-5-----6/x-----4-4-4-4-5-5-5-5-6-6-|
|-x---------------x-------x-x-x-x-x-x-x-x-5-5-|
|-2-2-2-2-3-3-3-4-4/x-----2-2-2-2-3-3-3-3-4-4-|
|---------------------------------------------|
|---------------------------------------------|

Guitar 2
|---------------------------------------------|
|---------------------------------------------|
|-4-4-4-4-5-5-----6/x------4-4-4----5-5-5-6-6-|
|-x---------------x-----------------x-x-x-x-x-|
|-2-2-2-2-3-3-3-4-4/x---------------3-3-3-4-4-|
|---------------------------------------------|
|---------------------------------------------|

Chorus - Guitars 1 & 2
|----------0-----------------------0-------0-|
|----------5--5\4--4---------------0-------0-|
|----------5--5\4--4---------------4-------4-|
|----------x-------x---------------2-------2-|
|----------3-------3---------------3-------3-|
|------------------1-----------------------1-|
|-0--0--0-----------------0--0--0------------|

|----------0-------0-|
|----------0-------0-|
|----------4-------4-|
|----------2-------2-|
|----------3-------3-|This repeats for rest of chorus
|------------------1-|
|-0--0--0------------|

Guitar 2
|-----------------------------------------------------|
|-----------------------------------------------------|
|-----5*-----------5*------------5*-----------5*-x/x\-|
|-----------------------------------------------------|
|-----------------------------------------------------|
|-2-2----------2-2-----------2-2----------2-2---------|
|-0-0----------0-0-----------0-0----------0-0---------|

Guitar 1 plays Intro

Interlude - Guitars 1 & 2
|--------7*---------------13----------|
|-12*--------------7*-----------------|
|-------------------------------------|
|-------------------------------------|
|-------------------------------------|Repeat
|-------------------------------------|
|-------------------------------------|

Bridge - Guitars 1 & 2
|-------------------------------------------------------|
|-------------------------------------------------------|
|-------------------------------------------------------|
|-------------------------------------------------------|
|-------------------------------------------------------|
|-4\3---3----4\3---3---4\3-3-4\3---3----4\3---3---4\3-3-|
|-2\1-1-1--1-2\1-1-1-1-2\1-1-2\1-1-1--1-2\1-1-1-1-2\1-1-|

Guitar 3
|------------------------------------------------|
|------------12----------------------------------|
|----------------------------11---------10-------|
|-9----------------------------------------------|
|------------------------------------------------|
|------------------------------------------------|
|------------------------------------------------|

Play Intro

Play Chorus

Outro - Guitars 1 & 2
|-----------------------------------------------------|
|-----------------------------------------------------|
|-----------------------------------------------------|
|-----------------------------------------------------|
|-----------------------------------------------------|
|-4\3---2---4\3---2---4\3-2-4\3---2---4\3---2---4\3-2-|
|-2\1-0-0-0-2\1-0-0-0-2\1-0-2\1-0-0-0-2\1-0-0-0-2\1-0-|

Guitar 3
|----------------------------------|
|-5--------------------------------|
|-3--------------------------------|
|----------------------------------|
|----------------------------------|
|----------------------------------|
|----------------------------------|

Guitar 3 Ending
|--------------------------------------|
|-5--5--5--5--5------------------------|
|-3--3--3--3--3------------------------|
|--------------------------------------|
|--------------------------------------|
|--------------------------------------|
|--------------------------------------|
Suggest correction
What's this?
You can suggest a correction to this tab. Community and Mods will review your correction and vote to approve or reject it.
comments
We did not receive enough feedback on this tab! Please rate:
print report bad tab
1 2 3 4 5
guest
You may want to rate the tab now too:
select rating
Please do not post tabs as comments. Select "correction" instead!