Oops, an error
Loading. Please wait.

Ball Tongue Tab

version 6
version 6
by Korn
600 views 1 this week
1 commentread comment
1 2 3 4 5
3 more votes to show rating
add to favorites
launch autoscroll
font size
0
reset
how to read this tab
guitar tuner
Autoscroll
slow
fast
+/-
esc
set tempo
stop
Help us to improve Ultimate-Guitar.com Take our survey!
×
Author
Difficulty
Gtr I (A D G C F A D) - 'Munky (Right)'
Gtr II (A D G C F A D) - 'Head (Left)'


 Intro
  Moderate Rock Q=106
  F5E5  A5G#5 F5E5    C5 B5      F5E5  A5G#5 F5E5    C5 B5
 4/4
  Gtrs I, II
      PM    PM    PM|      PM|       PM    PM    PM|      PM|
  S S S S S S S S S S  E E S S   S S S S S S S S S S  E E S S
|------------------------------|------------------------------|
|------------------------------|------------------------------|
|------------------------------|------------------------------|
|------------------------------|------------------------------|
|-------7S6-----------10-9-----|-------7S6-----------10-9-----|
|-8S7---5S4---8S7------8-7-----|-8S7---5S4---8S7------8-7-----|
|-6S5-0-----0-6S5-0-0------0-0-|-6S5-0-----0-6S5-0-0------0-0-|


  F5E5  A5G#5 F5E5    C5 B5      F5E5  A5G#5 F5E5    C5 B5
      PM    PM    PM|      PM|       PM    PM    PM|
  S S S S S S S S S S  E E S S   S S S S S S S S S S  E E E
|------------------------------|-----------------------------|
|------------------------------|-----------------------------|
|------------------------------|-----------------------------|
|------------------------------|-----------------------------|
|-------7S6-----------10-9-----|-------7S6-----------10-9----|
|-8S7---5S4---8S7------8-7-----|-8S7---5S4---8S7------8-7----|
|-6S5-0-----0-6S5-0-0------0-0-|-6S5-0-----0-6S5-0-0---------|


         H.=H      Q=86Q=106  H.=H          Q=86
         C5  B5F5E5A5         C5    B5F5E5A5
                      3/4
             PM--|                  PM--|
                                    |-3-|
  H    S  E. S S S S   H    S  E.   q q q E E
|--------------------|------------|-----------|
|--------------------|------------|-----------|
|--------------------|------------|-----------|
|--------------------|------------|-----------|
|--------10--------7-|--------10--|-------7---|
|---------8--2-8-7-5-|---------8--|-2-8-7-5---|
|------------0-6-5---|------------|-0-6-5-----|


    Q=106
    F5E5  A5G#5 F5E5  A5G#5 F5E5    F5E5  A5G#5 F5E5  A5G#5 F5E5
   4/4
        PM    PM    PM    PM            PM    PM    PM    PM
    S S S S S S S S S S S S S S E   S S S S S S S S S S S S S S E
||--------------------------------|-------------------------------|
||--------------------------------|-------------------------------|
||o-------------------------------|-------------------------------|
||--------------------------------|-------------------------------|
||o-------7S6---------7S6---------|-------7S6---------7S6---------|
||--8S7---5S4---8S7---5S4---8S7---|-8S7---5S4---8S7---5S4---8S7---|
||--6S5-0-----0-6S5-0-----0-6S5---|-6S5-0-----0-6S5-0-----0-6S5---|


  F5E5  A5G#5 F5E5  A5G#5 F5E5    F5E5  A5G#5 F5E5  C5 B5F5E5A5
      PM    PM    PM    PM            PM    PM    PM   PM--|
  S S S S S S S S S S S S S S E   S S S S S S S S S  E S S S E
|-------------------------------|-------------------------------||
|-------------------------------|-------------------------------||
|-------------------------------|------------------------------o||
|-------------------------------|-------------------------------||
|-------7S6---------7S6---------|-------7S6---------10-------7-o||
|-8S7---5S4---8S7---5S4---8S7---|-8S7---5S4---8S7----8-2-8-7-5--||
|-6S5-0-----0-6S5-0-----0-6S5---|-6S5-0-----0-6S5-0----0-6-5----||


 Pre-Verse
  N.C.
  Gtr I
  W                   W          W                    E      H..
|-------------------|----------|-------------------|-17b17.5--------|
|-------------------|----------|-------------------|----------------|
|-------------------|----------|-------------------|----------------|
|-------------------|----------|-------------------|----------------|
|-------------------|----------|-------------------|----------------|
|-------------------|----------|-------------------|----------------|
|-------------------|----------|-------------------|----------------|
|
| Gtr II
| H..        E        W          H..        E         W
|-------------------|----------|-------------------|----------------|
|-----------17b17.5-|----------|-----------19b19.5-|----------------|
|-------------------|----------|-------------------|----------------|
|-------------------|----------|-------------------|----------------|
|-------------------|----------|-------------------|----------------|
|-------------------|----------|-------------------|----------------|
|-------------------|----------|-------------------|----------------|


   Verse
    N.C.
             ~~~~~~~~~              ~~~~~~~~~
     Q       H.             Q       H.
||---------(18)pb20r=====|========(18)pb20r=====|
||-----------------------|----------------------|
||o----------------------|----------------------|
||-----------------------|----------------------|
||o----------------------|----------------------|
||-----------------------|----------------------|
||-----------------------|----------------------|
|
|    ~~~~~                  ~~~~~
|    Q       H.             Q       H.
||--18b20----------------|-18b20----------------|
||-----------------------|----------------------|
||o----------------------|----------------------|
||-----------------------|----------------------|
||o----------------------|----------------------|
||-----------------------|----------------------|
||-----------------------|----------------------|


           ~~~~~~~~~              ~~~~~~~~~
   Q       H.             Q       H.
|--------(18)pb20r=====|========(18)pb20r=====||
|----------------------|----------------------||
|----------------------|---------------------o||
|----------------------|----------------------||
|----------------------|---------------------o||
|----------------------|----------------------||
|----------------------|----------------------||
|
|  ~~~~~                  ~~~~~
|  Q       H.             Q       H.
|-18b20----------------|-18b20----------------||
|----------------------|----------------------||
|----------------------|---------------------o||
|----------------------|----------------------||
|----------------------|---------------------o||
|----------------------|----------------------||
|----------------------|----------------------||


 Chorus
  B5                    C5    B5                    C5
  e E E S S S S S S S S S S   e E E S S S S S S S S S S
|---------------------------|---------------------------|
|---------------------------|---------------------------|
|---------------------------|---------------------------|
|---------------------------|---------------------------|
|---------------------------|---------------------------|
|-2-2---2-2---2---2-2-2-3-3-|-2-2---2-2---2---2-2-2-3-3-|
|-0-0---0-0---0---0-0-0-1-1-|-0-0---0-0---0---0-0-0-1-1-|
|
| TP                          TP
| W                           W
|---------------------------|---------------------------|
|---------------------------|---------------------------|
|-8-------------------------|-6-------------------------|
|---------------------------|---------------------------|
|-6-------------------------|-4-------------------------|
|---------------------------|---------------------------|
|---------------------------|---------------------------|


  B5                    C5    B5                    C5
  e E E S S S S S S S S S S   e E E S S S S S S S S S S
|---------------------------|---------------------------|
|---------------------------|---------------------------|
|---------------------------|---------------------------|
|---------------------------|---------------------------|
|---------------------------|---------------------------|
|-2-2---2-2---2---2-2-2-3-3-|-2-2---2-2---2---2-2-2-3-3-|
|-0-0---0-0---0---0-0-0-1-1-|-0-0---0-0---0---0-0-0-1-1-|
|
| TP                          TP  TP            TP
| W                           Q   H             Q
|---------------------------|---------------------------|
|---------------------------|---------------------------|
|---------------------------|-6---4-------------9-------|
|-7-------------------------|---------------------------|
|---------------------------|-4---2-------------7-------|
|-5-------------------------|---------------------------|
|---------------------------|---------------------------|


 Pre-Verse
  N.C.
  W                    E      H..
|-------------------|-21b21.5-----------|
|-------------------|-------------------|
|-------------------|-------------------|
|-------------------|-------------------|
|-------------------|-------------------|
|-------------------|-------------------|
|-------------------|-------------------|
|
| H..        E         W
|-----------21b21.5-|-------------------|
|-------------------|-------------------|
|-------------------|-------------------|
|-------------------|-------------------|
|-------------------|-------------------|
|-------------------|-------------------|
|-------------------|-------------------|


   Verse
    N.C.
             ~~~~~~~~~              ~~~~~~~~~
     Q       H.             Q       H.          4x
||---------(18)pb20r=====|========(18)pb20r=====||
||-----------------------|----------------------||
||o----------------------|---------------------o||
||-----------------------|----------------------||
||o----------------------|---------------------o||
||-----------------------|----------------------||
||-----------------------|----------------------||
|
|    ~~~~~                  ~~~~~
|    Q       H.             Q       H.          4x
||--18b20----------------|-18b20----------------||
||-----------------------|----------------------||
||o----------------------|---------------------o||
||-----------------------|----------------------||
||o----------------------|---------------------o||
||-----------------------|----------------------||
||-----------------------|----------------------||


   Chorus
    B5                    C5    B5                    C5
    e E E S S S S S S S S S S   e E E S S S S S S S S S S
||----------------------------|----------------------------|
||----------------------------|----------------------------|
||o---------------------------|----------------------------|
||----------------------------|----------------------------|
||o---------------------------|----------------------------|
||--2-2---2-2---2---2-2-2-3-3-|-2-2---2-2---2---2-2-2-3-3--|
||--0-0---0-0---0---0-0-0-1-1-|-0-0---0-0---0---0-0-0-1-1--|
|
|   TP                          TP
|   W                           W
||----------------------------|----------------------------|
||----------------------------|----------------------------|
||o-8-------------------------|-6--------------------------|
||----------------------------|----------------------------|
||o-6-------------------------|-4--------------------------|
||----------------------------|----------------------------|
||----------------------------|----------------------------|


  B5                    C5    B5                    C5
                                                           2/4
                                                                 ~~
  e E E S S S S S S S S S S   e E E S S S S S S S S S S      Q   Q
|---------------------------|----------------------------||---------|
|---------------------------|----------------------------||-----10--|
|---------------------------|---------------------------o||---------|
|---------------------------|----------------------------||---------|
|---------------------------|---------------------------o||---------|
|-2-2---2-2---2---2-2-2-3-3-|-2-2---2-2---2---2-2-2-3-3--||---------|
|-0-0---0-0---0---0-0-0-1-1-|-0-0---0-0---0---0-0-0-1-1--||---------|
|
| TP                          TP  TP            TP           ~~
| W                           Q   H             Q            H
|---------------------------|----------------------------||---------|
|---------------------------|----------------------------||-14------|
|---------------------------|-6---4-------------9-------o||---------|
|-7-------------------------|----------------------------||---------|
|---------------------------|-4---2-------------7-------o||---------|
|-5-------------------------|----------------------------||---------|
|---------------------------|----------------------------||---------|


    F5E5  A5G#5 F5E5  A5G#5 F5E5    F5E5  A5G#5 F5E5  A5G#5 F5E5
   4/4
    Gtrs I, II
        PM    PM    PM    PM            PM    PM    PM    PM
    S S S S S S S S S S S S S S E   S S S S S S S S S S S S S S E
||--------------------------------|-------------------------------|
||--------------------------------|-------------------------------|
||o-------------------------------|-------------------------------|
||--------------------------------|-------------------------------|
||o-------7S6---------7S6---------|-------7S6---------7S6---------|
||--8S7---5S4---8S7---5S4---8S7---|-8S7---5S4---8S7---5S4---8S7---|
||--6S5-0-----0-6S5-0-----0-6S5---|-6S5-0-----0-6S5-0-----0-6S5---|


                                 1.
  F5E5  A5G#5 F5E5  A5G#5 F5E5    F5E5  A5G#5 F5E5  C5 B5F5E5A5
      PM    PM    PM    PM            PM    PM    PM   PM--|
  S S S S S S S S S S S S S S E   S S S S S S S S S  E S S S E
|-------------------------------|-------------------------------||
|-------------------------------|-------------------------------||
|-------------------------------|------------------------------o||
|-------------------------------|-------------------------------||
|-------7S6---------7S6---------|-------7S6---------10-------7-o||
|-8S7---5S4---8S7---5S4---8S7---|-8S7---5S4---8S7----8-2-8-7-5--||
|-6S5-0-----0-6S5-0-----0-6S5---|-6S5-0-----0-6S5-0----0-6-5----||


  2.
  F5E5  A5G#5 F5E5  C5    B5F5E5A5
 3/4
  Gtr I
      PM    PM    PM      PM--|
                          |-3-|
  S S S S S S S S S  E.   q q q E E
|-----------------------|-----------|
|-----------------------|-----------|
|-----------------------|-----------|
|-----------------------|-----------|
|-------7S6---------10--|-------7---|
|-8S7---5S4---8S7----8--|-2-8-7-5---|
|-6S5-0-----0-6S5-0-----|-0-6-5-----|
|
| Gtr II
|     PM    PM    PM      PM--|
|                         |-3-|
| S S S S S S S S S  E.   q q q E E
|-----------------------|-----------|
|-----------------------|-----------|
|-----------------------|-----------|
|-----------------------|-----------|
|-------7S6---------10--|-------7---|
|-8S7---5S4---8S7----8--|-2-8-7-5---|
|-6S5-0-----0-6S5-0-----|-0-6-5-----|


   Bridge
    N.C.
   4/4
                        |---3----|
     H.                 E  S  E  S    W                  4x
||---------------------------------|---------------------||
||---------------------15p12-15p12-|---------------------||
||o--------------------------------|--------------------o||
||---------------------------------|---------------------||
||o--------------------------------|--------------------o||
||---------------------------------|---------------------||
||---------------------------------|---------------------||
|
|    E       +E  H.                   E       +E  H.     4x
||--16b16.5-(16)-------------------|-16b16.5-(16)--------||
||---------------------------------|---------------------||
||o--------------------------------|--------------------o||
||---------------------------------|---------------------||
||o--------------------------------|--------------------o||
||---------------------------------|---------------------||
||---------------------------------|---------------------||


             Chorus
              F5E5  A5G#5 F5E5  A5G#5 F5E5    F5E5  A5G#5 F5E5  A5G#5 F5E5
 3/4         4/4
  Gtrs I, II
                  PM    PM    PM    PM            PM    PM    PM    PM
  H.          S S S S S S S S S S S S S S E   S S S S S S S S S S S S S S E
|---------||--------------------------------|-------------------------------|
|---------||--------------------------------|-------------------------------|
|---------||o-------------------------------|-------------------------------|
|---------||--------------------------------|-------------------------------|
|---------||o-------7S6---------7S6---------|-------7S6---------7S6---------|
|---------||--8S7---5S4---8S7---5S4---8S7---|-8S7---5S4---8S7---5S4---8S7---|
|---------||--6S5-0-----0-6S5-0-----0-6S5---|-6S5-0-----0-6S5-0-----0-6S5---|


  F5E5  A5G#5 F5E5  A5G#5 F5E5    F5E5  A5G#5 F5E5  C5 B5F5E5A5
      PM    PM    PM    PM            PM    PM    PM   PM--|
  S S S S S S S S S S S S S S E   S S S S S S S S S  E S S S E
|-------------------------------|-------------------------------||
|-------------------------------|-------------------------------||
|-------------------------------|------------------------------o||
|-------------------------------|-------------------------------||
|-------7S6---------7S6---------|-------7S6---------10-------7-o||
|-8S7---5S4---8S7---5S4---8S7---|-8S7---5S4---8S7----8-2-8-7-5--||
|-6S5-0-----0-6S5-0-----0-6S5---|-6S5-0-----0-6S5-0----0-6-5----||


   Interlude
    N.C.
    <          <          <          <       <
    W          W          W          H.      Q
||-----------|----------|----------|--------------||
||-----------|----------|----------|--------------||
||o-8--------|-6--------|----------|-4-------9---o||
||-----------|----------|-7--------|--------------||
||o-6--------|-4--------|----------|-2-------7---o||
||-----------|----------|-5--------|--------------||
||-----------|----------|----------|--------------||


   Chorus
    $
    B5                    C5    B5                    C5
    Gtr I
    e E E S S S S S S S S S S   e E E S S S S S S S S S S
||----------------------------|----------------------------|
||----------------------------|----------------------------|
||o---------------------------|----------------------------|
||----------------------------|----------------------------|
||o---------------------------|----------------------------|
||--2-2---2-2---2---2-2-2-3-3-|-2-2---2-2---2---2-2-2-3-3--|
||--0-0---0-0---0---0-0-0-1-1-|-0-0---0-0---0---0-0-0-1-1--|
|
|   Gtr II
|   TP                          TP
|   W                           W
||----------------------------|----------------------------|
||----------------------------|----------------------------|
||o-8-------------------------|-6--------------------------|
||----------------------------|----------------------------|
||o-6-------------------------|-4--------------------------|
||----------------------------|----------------------------|
||----------------------------|----------------------------|


  B5                    C5    B5                    C5
  e E E S S S S S S S S S S   e E E S S S S S S S S S S
|---------------------------|----------------------------||
|---------------------------|----------------------------||
|---------------------------|---------------------------o||
|---------------------------|----------------------------||
|---------------------------|---------------------------o||
|-2-2---2-2---2---2-2-2-3-3-|-2-2---2-2---2---2-2-2-3-3--||
|-0-0---0-0---0---0-0-0-1-1-|-0-0---0-0---0---0-0-0-1-1--||
|
| TP                          TP  TP            TP
| W                           Q   H             Q
|---------------------------|----------------------------||
|---------------------------|----------------------------||
|---------------------------|-6---4-------------9-------o||
|-7-------------------------|----------------------------||
|---------------------------|-4---2-------------7-------o||
|-5-------------------------|----------------------------||
|---------------------------|----------------------------||


                                                      D.S.
    B5                    C5    B5                    C5
    Gtrs I, II
    e E E S S S S S S S S S S   e E E S S S S S S S S S S
||----------------------------|-----------------------------||
||----------------------------|-----------------------------||
||o---------------------------|----------------------------o||
||----------------------------|-----------------------------||
||o---------------------------|----------------------------o||
||--2-2---2-2---2---2-2-2-3-3-|-2-2---2-2---2---2-2-2-3-3---||
||--0-0---0-0---0---0-0-0-1-1-|-0-0---0-0---0---0-0-0-1-1---||


   Outro
    B5                    C5    B5                    C5
    Gtr I
    e E E S S S S S S S S S S   e E E S S S S S S S S S S
||----------------------------|----------------------------|
||----------------------------|----------------------------|
||o---------------------------|----------------------------|
||----------------------------|----------------------------|
||o---------------------------|----------------------------|
||--2-2---2-2---2---2-2-2-3-3-|-2-2---2-2---2---2-2-2-3-3--|
||--0-0---0-0---0---0-0-0-1-1-|-0-0---0-0---0---0-0-0-1-1--|
|
|   Gtr II
|   TP                          TP
|   W                           W
||----------------------------|----------------------------|
||----------------------------|----------------------------|
||o-8-------------------------|-6--------------------------|
||----------------------------|----------------------------|
||o-6-------------------------|-4--------------------------|
||----------------------------|----------------------------|
||----------------------------|----------------------------|


  B5                    C5    B5                    C5
  e E E S S S S S S S S S S   e E E S S S S S S S S S S  3x
|---------------------------|----------------------------||
|---------------------------|----------------------------||
|---------------------------|---------------------------o||
|---------------------------|----------------------------||
|---------------------------|---------------------------o||
|-2-2---2-2---2---2-2-2-3-3-|-2-2---2-2---2---2-2-2-3-3--||
|-0-0---0-0---0---0-0-0-1-1-|-0-0---0-0---0---0-0-0-1-1--||
|
| TP                          TP  TP            TP
| W                           Q   H             Q        3x
|---------------------------|----------------------------||
|---------------------------|----------------------------||
|---------------------------|-6---4-------------9-------o||
|-7-------------------------|----------------------------||
|---------------------------|-4---2-------------7-------o||
|-5-------------------------|----------------------------||
|---------------------------|----------------------------||




--------------------------------------------------------------------------------


Duration Legend
---------------
W - whole; H - half; Q - quarter; E - 8th; S - 16th; T - 32nd; X - 64th; a - acciaccatura
+ - note tied to previous; . - note dotted; .. - note double dotted
Uncapitalized letters represent notes that are staccato (1/2 duration)
Irregular groupings are notated above the duration line
Duration letters will always appear directly above the note/fret number it represents the
duration for.  Duration letters with no fret number below them represent rests.  Multi-
bar rests are notated in the form Wxn, where n is the number of bars to rest for.  Low
melody durations appear below the staff

Tablature Legend
----------------
 h   - hammer-on
 p   - pull-off
 b   - bend
 pb  - pre-bend
 r   - bend release (if no number after the r, then release immediately)
 /\  - slide into or out of (from/to "nowhere")
 s   - legato slide
 S   - shift slide
 - natural harmonic
[n]  - artificial harmonic
n(n) - tapped harmonic
 ~   - vibrato
 tr  - trill
 T   - tap
 TP  - trem. picking
 PM  - palm muting
\n/  - tremolo bar dip; n = amount to dip
 \n  - tremolo bar down
 n/  - tremolo bar up
/n\  - tremolo bar inverted dip
 =   - hold bend; also acts as connecting device for hammers/pulls
 <> - volume swell (louder/softer)
 x   - on rhythm slash represents muted slash
 o   - on rhythm slash represents single note slash

Misc Legend
-----------
 |  - bar
||  - double bar
||o - repeat start
o|| - repeat end
*|  - double bar (ending)
 :  - bar (freetime)
 $  - Segno
 &  - Coda
Tempo markers -  = BPM(8/16=s8/s16), where s8 = swing 8ths, s16 = swing 16ths
Suggest correction
Give kudos to tab author, rate the tab!
1 2 3 4 5
comments
print report bad tab
1 comment total.
0 reply
mudvayne2005 291 Nov 29, 2007 12:32 PM

this tab is right on man...all the others suck

guest
You may want to rate the tab now too:
select rating
Wanna post a correction for this tab? Suggest correction