Oops, an error
Loading. Please wait.

Bbk Tab

version 4
version 4
by Korn
467 views 1 this week
1 commentread comment
1 2 3 4 5
please rate
add to favorites
launch autoscroll
font size
0
reset
how to read this tab
guitar tuner
Autoscroll
slow
fast
+/-
esc
set tempo
stop
Help us to improve Ultimate-Guitar.com Take our survey!
×
Author
Difficulty
intermediate
B.B.K. - Korn

7 String guitars tuned down one step
1 - d
2 - a
3 - F
4 - C
5 - G
6 - D
7 - A

Effects Used
Munky - Distortion,  Wah-Wah, Whamy, Chorus.
Head  - Distortion, Whammy, Chorus, Tremolo.


Intro 1 (Munky with Wah O = Open  C= Closed.  * = Trem. Pick)

d|---------------------------------|
a|---------------------------------|
F|-------3*o----------4*c----------|
C|---------------------------------|
G|---------------------------------|
D|---------------------------------|
A|---------------------------------|

d|---------------------------------|
a|---------------------------------|
F|-------3*o----------4*c----------|
C|---------------------------------|
G|---------------------------------|
D|------------------------------2--|
A|------------------------------0--|

Intro 2 (Munky + Head with whammy pedal raising the pitch 1octave. * =- Trem. Pick)

d|--------------------------------|
a|--------------------------------|
F|-------3*-----------------------|
C|--------------------------------|
G|--------------------------------|
D|-----------------------------2--|
A|------------------------------0-|

Verse 1 and 2

d|-------------12------14--------|
a|-----12------------------------|
F|-------------------------------|
C|-------------------------------|
G|-------------------------------|
D|-------------------------------|
A|-------------------------------|

d|-------------12------14--------|
a|-----11------------------------|
F|-------------------------------|
C|-------------------------------|
G|-------------------------------|
D|-------------------------------|
A|-------------------------------|

Fill  (*= When playing this chord, press and release whammy pedal for effect)

d|-------------------------5*--|
a|-----------------------------|
F|-------------------------2---|
C|-----------------------------|
G|-----------------------------|
D|---2-------------------------|
A|---0-------------------------|

Chorus (Head - Use chorus pedal, you can either trem pick these notes or hold them)

d|----------------------------------|
a|----------------------------------|
F|------------15------14------------|
C|-----14-------------------16------|
G|------------------------------17--|
D|----------------------------------|
A|----------------------------------|

d|----------------------------------|
a|----------------------------------|
F|------------15------14-----15-----|
C|-----14------------------16-------|
G|----------------------------------|
D|----------------------------------|
A|----------------------------------|

Munky

d|------------------------------------|
a|------------------------------------|
F|------------------------------------|
C|------------------------------------|
G|------------------------------------|
D|----------1----------------1----2---|
A|---0--0----0--------0---------------|

Verse 3 (Head with tremolo)

d|-------------0------2----------|
a|-----0-------------------------|
F|---------------------------3---|
C|-------------------------------|
G|-------------------------------|
D|-------------------------------|
A|-------------------------------|

d|-------------0------1----------|
a|-----0-------------------------|
F|-------------------------------|
C|-------------------------------|
G|-------------------------------|
D|-------------------------------|
A|-------------------------------|


Munky (with Whammy pedal.  You have to manipulate the pedal to get the rythm going.)

d|-------------7--------------|
a|----------------------------|
F|----------------------------|
C|----------------------------|
G|----------------------------|
D|----------------------------|
A|----------------------------|

Chorus (Head - Use chorus pedal, you can either trem pick these notes or hold them)

d|----------------------------------|
a|----------------------------------|
F|------------15------14------------|
C|-----14-------------------16------|
G|------------------------------17--|
D|----------------------------------|
A|----------------------------------|

d|----------------------------------|
a|----------------------------------|
F|------------15------14-----15-----|
C|-----14------------------16-------|
G|----------------------------------|
D|----------------------------------|
A|----------------------------------|


Munky

d|------------------------------------|
a|------------------------------------|
F|------------------------------------|
C|------------------------------------|
G|------------------------------------|
D|----------1----------------1----2---|
A|---0--0----0--------0---------------|

Bridge (Head, clean and chorus)

d|-------------0--------------|
a|-------------3--------3-----|
F|----------------------------|
C|----------------------------|
G|----2-----------------------|
D|----------------------------|
A|----------------------------|

d|-------------0--------------|
a|-------------3--------3-----|
F|----------------------------|
C|----------------------------|
G|----1-----------------------|
D|----------------------------|
A|----------------------------|

Last Bar ( ) = Natural harmonic.

d|------------------------(7)-|
a|----------------------------|
F|---------3------------------|
C|----------------------------|
G|----------------------------|
D|----------------------------|
A|----------------------------|


Bridge (Munky, clean and chorus)

d|-----------0----------2-----|
a|----------------------------|
F|----------------------------|
C|----------------------------|
G|----2-----------------------|
D|----------------------------|
A|----------------------------|

d|-------------0----------2---|
a|----------------------------|
F|----------------------------|
C|----------------------------|
G|----1-----------------------|
D|----------------------------|
A|----------------------------|


Interlude (Munky and Head)

d|-----------------------------------|
a|-----------------------------------|
F|-----------------------------------|
C|-----------------------------------|
G|-----------------------------------|
D|----------1------------------------|
A|---0--0----0--------0-----0----0---|

Intro 2 (Munky + Head with whammy pedal raising the pitch 1octave. * =- Trem. Pick)

d|---------------------------------|
a|---------------------------------|
F|-------3*------------------------|
C|---------------------------------|
G|---------------------------------|
D|-----------------------------2---|
A|------------------------------0--|


Instrumental bit (Head and Munky with whamm pedal)

d|-------------------------5*--|
a|-----------------------------|
F|-------------------------2---|
C|-----------------------------|
G|-----------------------------|
D|-----------------------------|
A|-----------------------------|

Intro 2 (Munky + Head with whammy pedal raising the pitch 1octave. * =- Trem. Pick)

d|--------------------------------|
a|--------------------------------|
F|-------3*-----------------------|
C|--------------------------------|
G|--------------------------------|
D|-----------------------------2--|
A|------------------------------0-|

Last chorus (Head with tremolo 4x)

d|-------------0------2----------|
a|-----0-------------------------|
F|---------------------------3---|
C|-------------------------------|
G|-------------------------------|
D|-------------------------------|
A|-------------------------------|

d|-------------0------1----------|
a|-----0-------------------------|
F|-------------------------------|
C|-------------------------------|
G|-------------------------------|
D|-------------------------------|
A|-------------------------------|

Chorus (Head - Use chorus pedal, you can either trem pick these notes or hold them)

d|----------------------------------|
a|----------------------------------|
F|------------15------14------------|
C|-----14-------------------16------|
G|------------------------------17--|
D|----------------------------------|
A|----------------------------------|

d|----------------------------------|
a|----------------------------------|
F|------------15------14-----15-----|
C|-----14------------------16-------|
G|----------------------------------|
D|----------------------------------|
A|----------------------------------|


Munky

d|-------------------------------------|
a|-------------------------------------|
F|-------------------------------------|
C|-----------4--------3----------5-----|
G|--2-------4--------3----------5------|
D|--2-------2--------1----------3------|
A|--0----------------------------------|

Outro (Munky + Head with whammy pedal raising the pitch 1octave. * =- Trem. Pick.  4th. 
don't play the las chord)

d|---------------------------------|
a|---------------------------------|
F|-------3*------------------------|
C|---------------------------------|
G|---------------------------------|
D|-----------------------------2---|
A|-----------------------------0---|


That's the whole song.  I don't think it's perfect but I'd say it's correct about 95%.  
rate or comment, or email me at vmbm1@yahoo.com.
Suggest correction
What's this?
You can suggest a correction to this tab. Community and Mods will review your correction and vote to approve or reject it.
comments
We did not receive enough feedback on this tab! Please rate:
print report bad tab
1 2 3 4 5
1 comment total.
0 reply
JackRabbitSlim 10 wrote on July 7 2007, 07:14 pm

The chorus was off

guest
You may want to rate the tab now too:
select rating
Please do not post tabs as comments. Select "correction" instead!