Oops, an error
Loading. Please wait.

Beg For Me Tab

version 1
version 1

Whole song

Interactive

by Korn
2,570 views 3 this week
no commentswrite comment
1 2 3 4 5
worth learning
x 1
add to favorites
launch autoscroll
font size
0
reset
how to read this tab
guitar tuner
Tab Pro tools
  • play this tab
  • loop segment
  • change instrument
  • show fretboard
  • metronome
Autoscroll
slow
fast
+/-
esc
set tempo
stop
KoRn - Beg For Me
Submitted By: WhO_ThEn_NoW_KiD
EMail: whothennowkid@hotmail.com


Tune A D G C F A D

Intro

|-----------------------------|--------------|
|-----------------------------|--------------| 
|-----------------------------|--------------|       Guitar 1
|-----------------------------|--------------|
|--------6--------6-----6-----|-------6------|
|-----------------------------|--------------|
|-4p3------3--------3------3--|-4p3------3---|

Chorus

|--------------------------------------|
|--------------------------------------|
|--------------------------------------|       Guitar 1
|--------------------------------------|
|-5-----5-----5------5------5----------|
|-5-----5-----5------5------5----------|
|-3-----3-----3------3------3------3/7-|

|--------------------------------------|
|--------------------------------------|
|----8------8------8-----8-------------|       Guitar 2
|----8------8------8-----8-------------|
|----6------6------6-----6-------------|
|--------------------------------------|
|--------------------------------------|

|--------------------------------------|
|--------------------------------------|
|--------------------------------------|       Guitar 1
|--------------------------------------|
|-5-----5-----5------5------5----------|
|-5-----5-----5------5------5----------|
|-3-----3-----3------3------3------3/4-|

|--------------------------------------|
|--------------------------------------|
|----8------8------8-----8-------------|       Guitar 2
|----8------8------8-----8-------------|
|----6------6------6-----6-------------|
|--------------------------------------|
|--------------------------------------|

Verse

|-----------------------------|
|-----------------------------|
|-----------------------------|       Guitar 1
|-----------------------------|
|--------6--------6-----6-----|
|-----------------------------|
|-4p3------3--------3------3--|

Bridge

|----------------------------------------------------|
|----------------------------------------------------|
|-------0--0-----------------------------------------|       Guitar 1&2
|-------6--6--------------------5---5----------------|
|-3-----6--6----6-------5-------5---5---4--------2---|
|-3-----4--4----6-------5-------3---3---4--------2---|
|-1-------------4-------3---------------2--------0---|

Interlude

|-----------------------------|
|-----------------------------|
|-----------------------------|       Guitar 1
|-----------------------------|
|--------6--------6-----6-----|
|-----------------------------|
|-4p3------3--------3------3--|

Outro

|----------------------------------------|
|----------------------------------------|
|--5---------------------5---------------|       Guitar 1
|--5---------------------5---------------|       
|--3---------------------3---------------|
|----------------------------------------|
|----------------------------------------|

|-------------15-------------------18----|
|---------16-------------------16--------|
|-----13-------------------13------------|       Guitar 2
|----------------------------------------|
|----------------------------------------|
|----------------------------------------|
|----------------------------------------|

Song Order

Intro
Chorus
Verse
Chorus
Verse
Chorus
Bridge
Interlude
Chorus
Outro

7 Stringz Rule!
AnY QuestiONs E-MaiL Me :) whothennowkid@hotmail.com
Expect More Tabs From Me
===========


Beg For Me by KoRn
Guitarist: Munky & Head
Album: Issues
Dif.: 7
Tabbed by Twiggy5

NOTE: Tune down 1 whole step A D G C F A D

Intro (Gtr. 1) (clean)
G|--------6--------6-----6-----|---|---|-------6------|
D|------------------------------|-%-|-%-|--------------|
A|-4p3------3--------3------3--|---|---|-4p3------3---|

Intro 2/Chorus (Both Guitars) (w/ dist.)
G|----6------6------6-----6--------------|----6------6------6-----6-------------|
D|-----------------------------------------|--------------------------------------|
A|-3-----3-----3------3------3------3/7-|-3-----3-----3------3------3------3/4-|

Verse (Gtr. 1)
G|--------6--------6-----6-----|---|
D|------------------------------|-%-|
A|-4p3------3--------3------3--|---|

Bridge (Both Guitars) (“I feel ashamed, I’m not insane..”)
F|-------0--0-----------------------------------------|
C|-------6--6---------------------5---5----------------|
G|-3-----6--6----6-------5-------5---5---4--------2---|
D|-3-----4--4----6-------5-------3---3---4--------2---|
A|-1--------------4-------3----------------2--------0---|

Interlude (Gtr. 1) (“Everyone one just let me...”)
Just do Verse Riff

Outro (Gtr. 1) (“Be there....”)
F|---5------------------|---5------------------|
C|---5------------------|---5------------------|
G|---3------------------|---3------------------|

Outro (Gtr. 2)
D|---------------15-----|----------------18-----|
A|-----------16---------|-------------16--------|
F|--------13------------|----------13-----------|

Song Structre: -
Drums Fade In
Intro (Gtr. 1)
Intro 2 (Both Guitars)
Verse (Gtr. 1)
Chorus (Both Guitars)
Verse (Gtr. 1)
Chorus (Both Guitars)
Bridge (Both Guitars)
Interlude (Gtr. 1)
Chorus (Both Guitars)
Outro (Gtr. 1)/Outro (Gtr. 2)

Very wierd song.. Well not really.. I don’t know.. This whole album is kinda fucked up.
Well if you have any comments, corrections or suggestions email me at 
ToXic345x@yahoo.ca
===========Beg For Me - Guitar Tab

Transcribed By: Sensabaugh@Lynchburg.net

If you have a 7 string play it in the same place but on the 7th 
string or play on the same note but lower. I labeled each riff 
part A B C and D so when you see them you know what to play.

PART A
e ||----------------------------------------------
B ||----------------------------------------------
G ||------4------------4---------4----------------PLAY 8 TIMES
D ||------4------------4---------4----------------
A ||-2---2----2---2---2---2----2------------------
E ||-0--------0---0--------0--------0-2-3---

PART B
e ||----------------------------------
B ||----------------------------------
G ||----------------------------------PLAY 8 TIMES
D ||----------------------------------
A ||--4-------4-------4------4--------
E ||-----2--------2------2------2-----

PART A-PLAY 8 TIMES

PART B---PLAY 8 TIMES

PART A---PLAY 8 TIMES

PART C
e ||------------------------------------------
B ||------------------------------------------
G ||----------4-----2-----------5---2---------PLAY 4 TIMES
D ||----------4-----2-----5----5----2---------
A ||---2------2-----0----5-----3----0---------
E ||---0------------------3-------------------

PART B---PLAY 2 TIMES

PART A---PLAY 16 TIMES

PART D
e ||---------0----------0---------0---------0----
B ||---------5----------5---------5---------5----
G ||---------3----------3---------3---------3----PLAY 2 TIMES
D ||----2----------2---------2--------2----------
A ||----2----------2---------2--------2----------
E ||----0----------0---------0--------0----------


=================================================================

Tabbed By: Sam Sensabaugh (BeatingMeDown@hotmail.com)

Tuned Down One Half Whole Step (DGCFAd)

(Intro Pt 1 and Verse)

d ||----------------------------------------|
A ||----------------------------------------|
F ||----------------------------------------|
C ||-1--0--1--0--1--0--1--0--0--1--0--4-----|
G ||----------------------------------------|
D ||----------------------------------------|

(With Flanger Effect)

(Intro Pt 2 and Chorus)

(Guitars 1 and 2)
d ||----------------------------|
A ||----------------------------|
F ||--8/7/8--7--8/7/8--11-------|
C ||--8/7/8--7--8/7/8--11-------|
G ||--6/5/6--5--6/5/6---9-------|
D ||----------------------------|
(note: / = Hammer on)

(With heavy Distortion)

(Bridge: The Part when Jon Goes..."I feel the shame...")

d ||----------------||----------------|
A ||----------------||----------------|
F ||-5--8--8--8--7--||-12--10--8--5---|
C ||-5--8--8--8--7--||-12--10--8--5---|
G ||-3--6--6--6--5--||-10---8--6--3---|
D ||----------------||----------------|

(With Heavy Distortion)

(Outro: Where Jon Sings..."Be there, for me")

d ||----7-----11--|
A ||----7-----11--|
F ||-5--7--5--11--|
C ||-5-----5------|
G ||-3-----3------|
D ||--------------|
comments
We did not receive enough feedback on this tab! Please rate:
print report bad tab
1 2 3 4 5
I want to post or [tab]
guest
You may want to rate the tab now too:
select rating
Please do not post tabs as comments. Select "correction" instead!